  0
SECTION
  2
HEADER
  9
$ACADVER
  1
AC1009
  9
$DWGCODEPAGE
  3
ansi_1252
  9
$INSBASE
 10
0.0
 20
0.0
 30
0.0
  9
$EXTMIN
 10
1.000000000000000E+20
 20
1.000000000000000E+20
 30
1.000000000000000E+20
  9
$EXTMAX
 10
-1.000000000000000E+20
 20
-1.000000000000000E+20
 30
-1.000000000000000E+20
  9
$LIMMIN
 10
0.0
 20
0.0
  9
$LIMMAX
 10
12.0
 20
9.0
  9
$ORTHOMODE
 70
     0
  9
$REGENMODE
 70
     1
  9
$FILLMODE
 70
     1
  9
$QTEXTMODE
 70
     0
  9
$MIRRTEXT
 70
     1
  9
$DRAGMODE
 70
     2
  9
$LTSCALE
 40
1.0
  9
$OSMODE
 70
    37
  9
$ATTMODE
 70
     1
  9
$TEXTSIZE
 40
0.2
  9
$TRACEWID
 40
0.05
  9
$TEXTSTYLE
  7
STANDARD
  9
$CLAYER
  8
DRAFT
  9
$CELTYPE
  6
BYLAYER
  9
$CECOLOR
 62
   256
  9
$DIMSCALE
 40
1.0
  9
$DIMASZ
 40
0.18
  9
$DIMEXO
 40
0.0625
  9
$DIMDLI
 40
0.38
  9
$DIMRND
 40
0.0
  9
$DIMDLE
 40
0.0
  9
$DIMEXE
 40
0.18
  9
$DIMTP
 40
0.0
  9
$DIMTM
 40
0.0
  9
$DIMTXT
 40
0.18
  9
$DIMCEN
 40
0.09
  9
$DIMTSZ
 40
0.0
  9
$DIMTOL
 70
     0
  9
$DIMLIM
 70
     0
  9
$DIMTIH
 70
     1
  9
$DIMTOH
 70
     1
  9
$DIMSE1
 70
     0
  9
$DIMSE2
 70
     0
  9
$DIMTAD
 70
     0
  9
$DIMZIN
 70
     0
  9
$DIMBLK
  1

  9
$DIMASO
 70
     1
  9
$DIMSHO
 70
     1
  9
$DIMPOST
  1

  9
$DIMAPOST
  1

  9
$DIMALT
 70
     0
  9
$DIMALTD
 70
     2
  9
$DIMALTF
 40
25.4
  9
$DIMLFAC
 40
1.0
  9
$DIMTOFL
 70
     0
  9
$DIMTVP
 40
0.0
  9
$DIMTIX
 70
     0
  9
$DIMSOXD
 70
     0
  9
$DIMSAH
 70
     0
  9
$DIMBLK1
  1

  9
$DIMBLK2
  1

  9
$DIMSTYLE
  2
STANDARD_ACAD
  9
$DIMCLRD
 70
     0
  9
$DIMCLRE
 70
     0
  9
$DIMCLRT
 70
     0
  9
$DIMTFAC
 40
1.0
  9
$DIMGAP
 40
0.09
  9
$LUNITS
 70
     2
  9
$LUPREC
 70
     3
  9
$SKETCHINC
 40
0.1
  9
$FILLETRAD
 40
0.5
  9
$AUNITS
 70
     0
  9
$AUPREC
 70
     0
  9
$MENU
  1
.
  9
$ELEVATION
 40
0.0
  9
$PELEVATION
 40
0.0
  9
$THICKNESS
 40
0.0
  9
$LIMCHECK
 70
     0
  9
$CHAMFERA
 40
0.0
  9
$CHAMFERB
 40
0.0
  9
$SKPOLY
 70
     0
  9
$TDCREATE
 40
2458940.45859088
  9
$TDUPDATE
 40
2458940.458615706
  9
$TDINDWG
 40
0.0000000116
  9
$TDUSRTIMER
 40
0.0000000116
  9
$USRTIMER
 70
     1
  9
$ANGBASE
 50
0.0
  9
$ANGDIR
 70
     0
  9
$PDMODE
 70
     0
  9
$PDSIZE
 40
0.0
  9
$PLINEWID
 40
0.0
  9
$COORDS
 70
     1
  9
$SPLFRAME
 70
     0
  9
$SPLINETYPE
 70
     6
  9
$SPLINESEGS
 70
     8
  9
$ATTDIA
 70
     0
  9
$ATTREQ
 70
     1
  9
$HANDLING
 70
     1
  9
$HANDSEED
  5
F50
  9
$SURFTAB1
 70
     6
  9
$SURFTAB2
 70
     6
  9
$SURFTYPE
 70
     6
  9
$SURFU
 70
     6
  9
$SURFV
 70
     6
  9
$UCSNAME
  2

  9
$UCSORG
 10
0.0
 20
0.0
 30
0.0
  9
$UCSXDIR
 10
1.0
 20
0.0
 30
0.0
  9
$UCSYDIR
 10
0.0
 20
1.0
 30
0.0
  9
$PUCSNAME
  2

  9
$PUCSORG
 10
0.0
 20
0.0
 30
0.0
  9
$PUCSXDIR
 10
1.0
 20
0.0
 30
0.0
  9
$PUCSYDIR
 10
0.0
 20
1.0
 30
0.0
  9
$USERI1
 70
     0
  9
$USERI2
 70
     0
  9
$USERI3
 70
     0
  9
$USERI4
 70
     0
  9
$USERI5
 70
     0
  9
$USERR1
 40
0.0
  9
$USERR2
 40
0.0
  9
$USERR3
 40
0.0
  9
$USERR4
 40
0.0
  9
$USERR5
 40
0.0
  9
$WORLDVIEW
 70
     1
  9
$SHADEDGE
 70
     3
  9
$SHADEDIF
 70
    70
  9
$TILEMODE
 70
     1
  9
$MAXACTVP
 70
    64
  9
$PLIMCHECK
 70
     0
  9
$PEXTMIN
 10
1.000000000000000E+20
 20
1.000000000000000E+20
 30
1.000000000000000E+20
  9
$PEXTMAX
 10
-1.000000000000000E+20
 20
-1.000000000000000E+20
 30
-1.000000000000000E+20
  9
$PLIMMIN
 10
0.0
 20
0.0
  9
$PLIMMAX
 10
12.0
 20
9.0
  9
$UNITMODE
 70
     0
  9
$VISRETAIN
 70
     1
  9
$PLINEGEN
 70
     0
  9
$PSLTSCALE
 70
     1
  0
ENDSEC
  0
SECTION
  2
TABLES
  0
TABLE
  2
VPORT
 70
     1
  0
VPORT
  2
*ACTIVE
 70
     0
 10
0.0
 20
0.0
 11
1.0
 21
1.0
 12
10.42990654205607
 22
4.5
 13
0.0
 23
0.0
 14
0.5
 24
0.5
 15
0.5
 25
0.5
 16
0.0
 26
0.0
 36
1.0
 17
0.0
 27
0.0
 37
0.0
 40
9.0
 41
1.972972972850329
 42
50.0
 43
0.0
 44
0.0
 50
0.0
 51
0.0
 71
     0
 72
   100
 73
     1
 74
     3
 75
     0
 76
     0
 77
     0
 78
     0
  0
ENDTAB
  0
TABLE
  2
LTYPE
 70
     1
  0
LTYPE
  2
CONTINUOUS
 70
     0
  3
Solid line
 72
    65
 73
     0
 40
0.0
  0
ENDTAB
  0
TABLE
  2
LAYER
 70
     2
  0
LAYER
  2
0
 70
     0
 62
     7
  6
CONTINUOUS
  0
LAYER
  2
DRAFT
 70
     0
 62
    30
  6
CONTINUOUS
  0
ENDTAB
  0
TABLE
  2
STYLE
 70
     1
  0
STYLE
  2
STANDARD
 70
     0
 40
0.0
 41
1.0
 50
0.0
 71
     0
 42
0.2
  3
txt
  4

  0
ENDTAB
  0
TABLE
  2
VIEW
 70
     0
  0
ENDTAB
  0
TABLE
  2
UCS
 70
     0
  0
ENDTAB
  0
TABLE
  2
APPID
 70
     1
  0
APPID
  2
ACAD
 70
     0
  0
ENDTAB
  0
TABLE
  2
DIMSTYLE
 70
     1
  0
DIMSTYLE
  2
STANDARD_ACAD
 70
     0
  3

  4

  5

  6

  7

 40
1.0
 41
0.18
 42
0.0625
 43
0.38
 44
0.18
 45
0.0
 46
0.0
 47
0.0
 48
0.0
140
0.18
141
0.09
142
0.0
143
25.4
144
1.0
145
0.0
146
1.0
147
0.09
 71
     0
 72
     0
 73
     1
 74
     1
 75
     0
 76
     0
 77
     0
 78
     0
170
     0
171
     2
172
     0
173
     0
174
     0
175
     0
176
     0
177
     0
178
     0
  0
ENDTAB
  0
ENDSEC
  0
SECTION
  2
BLOCKS
  0
BLOCK
  8
0
  2
$MODEL_SPACE
 70
     0
 10
0.0
 20
0.0
 30
0.0
  3
$MODEL_SPACE
  1

  0
ENDBLK
  5
21
  8
0
  0
BLOCK
 67
     1
  8
0
  2
$PAPER_SPACE
 70
     0
 10
0.0
 20
0.0
 30
0.0
  3
$PAPER_SPACE
  1

  0
ENDBLK
  5
1D
 67
     1
  8
0
  0
ENDSEC
  0
SECTION
  2
ENTITIES
  0
LINE
  5
6F
  8
DRAFT
 10
-961.7722938635901
 20
-2.082038451451361
 30
0.0
 11
-961.7877348834703
 21
-1.905546786612611
 31
0.0
  0
POLYLINE
  5
70
  8
DRAFT
 66
     1
 10
0.0
 20
0.0
 30
0.0
  0
VERTEX
  5
71
  8
DRAFT
 10
-964.2308198160816
 20
-2.935517003050471
 30
0.0
  0
VERTEX
  5
72
  8
DRAFT
 10
-964.2556071778923
 20
-2.937683244493542
 30
0.0
 42
-0.1624911418062927
  0
VERTEX
  5
73
  8
DRAFT
 10
-964.3313215113255
 20
-2.920030938723108
 30
0.0
 42
-0.0901239739957575
  0
VERTEX
  5
74
  8
DRAFT
 10
-964.4659535579553
 20
-2.799308360897878
 30
0.0
 42
-0.2945408183500298
  0
VERTEX
  5
75
  8
DRAFT
 10
-964.4998767370292
 20
-2.41114016784418
 30
0.0
 42
-0.093120483370471
  0
VERTEX
  5
76
  8
DRAFT
 10
-964.3882262955655
 20
-2.268894226961446
 30
0.0
 42
-0.1594425821280221
  0
VERTEX
  5
77
  8
DRAFT
 10
-964.3167217271765
 20
-2.238376021153443
 30
0.0
  0
VERTEX
  5
78
  8
DRAFT
 10
-964.2919343654045
 20
-2.236209779266922
 30
0.0
  0
SEQEND
  5
79
  8
DRAFT
  0
POLYLINE
  5
7A
  8
DRAFT
 66
     1
 10
0.0
 20
0.0
 30
0.0
 70
     1
  0
VERTEX
  5
7B
  8
DRAFT
 10
-961.7877348834703
 20
-1.905546786612611
 30
0.0
  0
VERTEX
  5
7C
  8
DRAFT
 10
-961.7235475584354
 20
-2.639211268933956
 30
0.0
 42
-0.4142135330921638
  0
VERTEX
  5
7D
  8
DRAFT
 10
-961.751955022677
 20
-2.673065969938134
 30
0.0
  0
VERTEX
  5
7E
  8
DRAFT
 10
-962.2779968055439
 20
-2.719088715488544
 30
0.0
 42
-0.4142135777871658
  0
VERTEX
  5
7F
  8
DRAFT
 10
-962.311851509804
 20
-2.690681249881691
 30
0.0
  0
VERTEX
  5
80
  8
DRAFT
 10
-962.3760388698867
 20
-1.9570167673835
 30
0.0
 42
-1.000000000014857
  0
VERTEX
  5
81
  8
DRAFT
 10
-962.336191081963
 20
-1.953530537673747
 30
0.0
  0
VERTEX
  5
82
  8
DRAFT
 10
-962.3234736517933
 20
-2.098891094810379
 30
0.0
 42
0.4142135183726009
  0
VERTEX
  5
83
  8
DRAFT
 10
-962.2896189495108
 20
-2.127298555802341
 30
0.0
  0
VERTEX
  5
84
  8
DRAFT
 10
-961.8432727341423
 20
-2.088248299536197
 30
0.0
 42
0.4142135477749088
  0
VERTEX
  5
85
  8
DRAFT
 10
-961.814865268339
 20
-2.054393598395779
 30
0.0
  0
VERTEX
  5
86
  8
DRAFT
 10
-961.8275826713942
 20
-1.909033016322617
 30
0.0
 42
-1.000000000009136
  0
SEQEND
  5
87
  8
DRAFT
  0
POLYLINE
  5
88
  8
DRAFT
 66
     1
 10
0.0
 20
0.0
 30
0.0
 70
     1
  0
VERTEX
  5
89
  8
DRAFT
 10
-962.8920147690675
 20
-2.749451252847415
 30
0.0
 42
-0.4142135623822762
  0
VERTEX
  5
8A
  8
DRAFT
 10
-962.9204208179175
 20
-2.783307144339104
 30
0.0
  0
VERTEX
  5
8B
  8
DRAFT
 10
-963.3378694124445
 20
-2.819846788605808
 30
0.0
 42
-0.4142135623764419
  0
VERTEX
  5
8C
  8
DRAFT
 10
-963.3717253039378
 20
-2.791440739755815
 30
0.0
  0
VERTEX
  5
8D
  8
DRAFT
 10
-963.41917676331
 20
-2.249329686916447
 30
0.0
 42
-0.4142135623838017
  0
VERTEX
  5
8E
  8
DRAFT
 10
-963.39077071446
 20
-2.215473795424458
 30
0.0
  0
VERTEX
  5
8F
  8
DRAFT
 10
-962.9733221199325
 20
-2.178934151158034
 30
0.0
 42
-0.4142135623591797
  0
VERTEX
  5
90
  8
DRAFT
 10
-962.9394662284404
 20
-2.207340200008284
 30
0.0
  0
SEQEND
  5
91
  8
DRAFT
  0
POLYLINE
  5
92
  8
DRAFT
 66
     1
 10
0.0
 20
0.0
 30
0.0
  0
VERTEX
  5
93
  8
DRAFT
 10
-963.4385306992468
 20
-1.731211663623945
 30
0.0
 42
0.1738231549375481
  0
VERTEX
  5
94
  8
DRAFT
 10
-963.5074362927937
 20
-1.779884738422421
 30
0.0
  0
VERTEX
  5
95
  8
DRAFT
 10
-963.7750128488079
 20
-2.161427811223412
 30
0.0
 42
-0.2214558604959408
  0
VERTEX
  5
96
  8
DRAFT
 10
-963.8207252430944
 20
-2.187803022323014
 30
0.0
  0
VERTEX
  5
97
  8
DRAFT
 10
-963.8655905401995
 20
-2.191736306981745
 30
0.0
 42
0.1622776624537023
  0
VERTEX
  5
98
  8
DRAFT
 10
-963.9018555848324
 20
-2.207463562934495
 30
0.0
  0
VERTEX
  5
99
  8
DRAFT
 10
-963.9096112436131
 20
-2.214417466086962
 30
0.0
 42
-2.013858596113786
  0
VERTEX
  5
9A
  8
DRAFT
 10
-963.9187703415698
 20
-2.114884625631029
 30
0.0
  0
VERTEX
  5
9B
  8
DRAFT
 10
-963.9096303431899
 20
-2.120500548308321
 30
0.0
 42
0.1609716664713423
  0
VERTEX
  5
9C
  8
DRAFT
 10
-963.871452630512
 20
-2.129510507291982
 30
0.0
  0
VERTEX
  5
9D
  8
DRAFT
 10
-963.8526562720518
 20
-2.127862653980747
 30
0.0
 42
0.2261705714138195
  0
VERTEX
  5
9E
  8
DRAFT
 10
-963.8063076808303
 20
-2.10056271949335
 30
0.0
  0
VERTEX
  5
9F
  8
DRAFT
 10
-963.7322812629809
 20
-1.990867498182989
 30
0.0
 42
0.63100437845954
  0
VERTEX
  5
A0
  8
DRAFT
 10
-963.846779807892
 20
-1.796419782232037
 30
0.0
  0
SEQEND
  5
A1
  8
DRAFT
  0
POLYLINE
  5
A2
  8
DRAFT
 66
     1
 10
0.0
 20
0.0
 30
0.0
  0
VERTEX
  5
A3
  8
DRAFT
 10
-964.4311507590293
 20
-1.847499142617572
 30
0.0
 42
0.2215234308498458
  0
VERTEX
  5
A4
  8
DRAFT
 10
-964.5226076301738
 20
-1.900252373290618
 30
0.0
  0
VERTEX
  5
A5
  8
DRAFT
 10
-964.7667347608327
 20
-2.248359591657397
 30
0.0
 42
-0.2214558605043505
  0
VERTEX
  5
A6
  8
DRAFT
 10
-964.812447155119
 20
-2.274734802756946
 30
0.0
  0
VERTEX
  5
A7
  8
DRAFT
 10
-964.8573124522242
 20
-2.278668087415518
 30
0.0
 42
0.1622776624686769
  0
VERTEX
  5
A8
  8
DRAFT
 10
-964.8935774968572
 20
-2.294395343368126
 30
0.0
  0
VERTEX
  5
A9
  8
DRAFT
 10
-964.9013331556376
 20
-2.30134924652081
 30
0.0
 42
-2.013858596094449
  0
VERTEX
  5
AA
  8
DRAFT
 10
-964.9104922535943
 20
-2.201816406065298
 30
0.0
  0
VERTEX
  5
AB
  8
DRAFT
 10
-964.9013522552142
 20
-2.207432328742136
 30
0.0
 42
0.1609716664677848
  0
VERTEX
  5
AC
  8
DRAFT
 10
-964.863174542537
 20
-2.216442287725414
 30
0.0
  0
VERTEX
  5
AD
  8
DRAFT
 10
-964.8443781840764
 20
-2.21479443441461
 30
0.0
 42
0.2261705714093797
  0
VERTEX
  5
AE
  8
DRAFT
 10
-964.7980295928545
 20
-2.187494499927328
 30
0.0
  0
VERTEX
  5
AF
  8
DRAFT
 10
-964.7238265980158
 20
-2.077537619974414
 30
0.0
 42
0.6310043784612913
  0
VERTEX
  5
B0
  8
DRAFT
 10
-964.8383251429271
 20
-1.883089904023709
 30
0.0
  0
SEQEND
  5
B1
  8
DRAFT
  0
POLYLINE
  5
B2
  8
DRAFT
 66
     1
 10
0.0
 20
0.0
 30
0.0
  0
VERTEX
  5
B3
  8
DRAFT
 10
-964.3004121536343
 20
-3.342145078105368
 30
0.0
 42
-0.2214556596421695
  0
VERTEX
  5
B4
  8
DRAFT
 10
-964.3996109360796
 20
-3.306080105493828
 30
0.0
  0
VERTEX
  5
B5
  8
DRAFT
 10
-964.7004405115075
 20
-3.005740835018877
 30
0.0
 42
0.2214558604994483
  0
VERTEX
  5
B6
  8
DRAFT
 10
-964.7500399504136
 20
-2.987708352880291
 30
0.0
  0
VERTEX
  5
B7
  8
DRAFT
 10
-964.7949063221419
 20
-2.99162936046617
 30
0.0
 42
-0.1622776624686815
  0
VERTEX
  5
B8
  8
DRAFT
 10
-964.8333521986461
 20
-2.982441617442438
 30
0.0
  0
VERTEX
  5
B9
  8
DRAFT
 10
-964.842198025137
 20
-2.976940856961825
 30
0.0
 42
1.989253265098825
  0
VERTEX
  5
BA
  8
DRAFT
 10
-964.8339259322554
 20
-3.076551337755796
 30
0.0
  0
VERTEX
  5
BB
  8
DRAFT
 10
-964.8259005822091
 20
-3.06943291696637
 30
0.0
 42
-0.160971666462824
  0
VERTEX
  5
BC
  8
DRAFT
 10
-964.7898687369426
 20
-3.053927329817407
 30
0.0
  0
VERTEX
  5
BD
  8
DRAFT
 10
-964.7710719282674
 20
-3.052284619997543
 30
0.0
 42
-0.2261705714146827
  0
VERTEX
  5
BE
  8
DRAFT
 10
-964.720685314103
 20
-3.071117236498762
 30
0.0
  0
VERTEX
  5
BF
  8
DRAFT
 10
-964.6286623465336
 20
-3.166350771481198
 30
0.0
 42
-0.6310947064784095
  0
VERTEX
  5
C0
  8
DRAFT
 10
-964.7076703745394
 20
-3.377736288437874
 30
0.0
  0
SEQEND
  5
C1
  8
DRAFT
  0
POLYLINE
  5
C2
  8
DRAFT
 66
     1
 10
0.0
 20
0.0
 30
0.0
  0
VERTEX
  5
C3
  8
DRAFT
 10
-963.3086565036509
 20
-3.255473325088722
 30
0.0
 42
-0.2214552436091268
  0
VERTEX
  5
C4
  8
DRAFT
 10
-963.4078551457693
 20
-3.219408492574855
 30
0.0
  0
VERTEX
  5
C5
  8
DRAFT
 10
-963.7086967988236
 20
-2.919058117066264
 30
0.0
 42
0.2214558604975526
  0
VERTEX
  5
C6
  8
DRAFT
 10
-963.7582962377302
 20
-2.901025634928028
 30
0.0
  0
VERTEX
  5
C7
  8
DRAFT
 10
-963.8031626094586
 20
-2.904946642513984
 30
0.0
 42
-0.1622776624614087
  0
VERTEX
  5
C8
  8
DRAFT
 10
-963.8416084859624
 20
-2.8957588994904
 30
0.0
  0
VERTEX
  5
C9
  8
DRAFT
 10
-963.8504543124542
 20
-2.890258139010122
 30
0.0
 42
1.989253265124107
  0
VERTEX
  5
CA
  8
DRAFT
 10
-963.842182219572
 20
-2.989868619803352
 30
0.0
  0
VERTEX
  5
CB
  8
DRAFT
 10
-963.8341568695256
 20
-2.982750199014241
 30
0.0
 42
-0.1609716664607297
  0
VERTEX
  5
CC
  8
DRAFT
 10
-963.7981250242591
 20
-2.967244611864827
 30
0.0
  0
VERTEX
  5
CD
  8
DRAFT
 10
-963.7793282155839
 20
-2.965601902045371
 30
0.0
 42
-0.2261705714009741
  0
VERTEX
  5
CE
  8
DRAFT
 10
-963.72894160142
 20
-2.9844345185468
 30
0.0
  0
VERTEX
  5
CF
  8
DRAFT
 10
-963.6369079340669
 20
-3.079679126613776
 30
0.0
 42
-0.6310947064850112
  0
VERTEX
  5
D0
  8
DRAFT
 10
-963.7159159620735
 20
-3.291064643569847
 30
0.0
  0
SEQEND
  5
D1
  8
DRAFT
  0
POLYLINE
  5
D2
  8
DRAFT
 66
     1
 10
0.0
 20
0.0
 30
0.0
  0
VERTEX
  5
D3
  8
DRAFT
 10
-964.9643555598549
 20
-3.400168583110919
 30
0.0
 42
-0.4141732650317062
  0
VERTEX
  5
D4
  8
DRAFT
 10
-965.3705748593408
 20
-3.059291501525353
 30
0.0
  0
VERTEX
  5
D5
  8
DRAFT
 10
-965.4360027757774
 20
-2.311807712121002
 30
0.0
 42
-0.4142489508360423
  0
VERTEX
  5
D6
  8
DRAFT
 10
-965.0950850535688
 20
-1.905533066167184
 30
0.0
  0
SEQEND
  5
D7
  8
DRAFT
  0
LINE
  5
D8
  8
DRAFT
 10
-951.4641800859089
 20
-2.082038451451361
 30
0.0
 11
-951.4487390660287
 21
-1.905546786612611
 31
0.0
  0
POLYLINE
  5
D9
  8
DRAFT
 66
     1
 10
0.0
 20
0.0
 30
0.0
  0
VERTEX
  5
DA
  8
DRAFT
 10
-949.0056541334174
 20
-2.935517003050471
 30
0.0
  0
VERTEX
  5
DB
  8
DRAFT
 10
-948.9808667716067
 20
-2.937683244493522
 30
0.0
 42
0.1624911418062886
  0
VERTEX
  5
DC
  8
DRAFT
 10
-948.9051524381733
 20
-2.920030938723226
 30
0.0
 42
0.0901239739970654
  0
VERTEX
  5
DD
  8
DRAFT
 10
-948.7705203915434
 20
-2.7993083608979
 30
0.0
 42
0.2945408183495725
  0
VERTEX
  5
DE
  8
DRAFT
 10
-948.7365972124696
 20
-2.411140167844165
 30
0.0
 42
0.0931204833710114
  0
VERTEX
  5
DF
  8
DRAFT
 10
-948.8482476539335
 20
-2.268894226961422
 30
0.0
 42
0.1594425821233746
  0
VERTEX
  5
E0
  8
DRAFT
 10
-948.9197522223225
 20
-2.238376021153484
 30
0.0
  0
VERTEX
  5
E1
  8
DRAFT
 10
-948.9445395840945
 20
-2.236209779266922
 30
0.0
  0
SEQEND
  5
E2
  8
DRAFT
  0
POLYLINE
  5
E3
  8
DRAFT
 66
     1
 10
0.0
 20
0.0
 30
0.0
 70
     1
  0
VERTEX
  5
E4
  8
DRAFT
 10
-951.4487390660287
 20
-1.905546786612611
 30
0.0
  0
VERTEX
  5
E5
  8
DRAFT
 10
-951.5129263910636
 20
-2.639211268933956
 30
0.0
 42
0.4142135331023034
  0
VERTEX
  5
E6
  8
DRAFT
 10
-951.484518926822
 20
-2.673065969938048
 30
0.0
  0
VERTEX
  5
E7
  8
DRAFT
 10
-950.9584771439551
 20
-2.719088715488689
 30
0.0
 42
0.4142135777841793
  0
VERTEX
  5
E8
  8
DRAFT
 10
-950.924622439695
 20
-2.690681249881698
 30
0.0
  0
VERTEX
  5
E9
  8
DRAFT
 10
-950.8604350796123
 20
-1.9570167673835
 30
0.0
 42
1.000000000000364
  0
VERTEX
  5
EA
  8
DRAFT
 10
-950.9002828675362
 20
-1.953530537673734
 30
0.0
  0
VERTEX
  5
EB
  8
DRAFT
 10
-950.9130002977057
 20
-2.09889109481038
 30
0.0
 42
-0.414213518373785
  0
VERTEX
  5
EC
  8
DRAFT
 10
-950.9468549999882
 20
-2.127298555802258
 30
0.0
  0
VERTEX
  5
ED
  8
DRAFT
 10
-951.3932012153567
 20
-2.088248299536197
 30
0.0
 42
-0.4142135477921426
  0
VERTEX
  5
EE
  8
DRAFT
 10
-951.4216086811603
 20
-2.054393598395762
 30
0.0
  0
VERTEX
  5
EF
  8
DRAFT
 10
-951.4088912781048
 20
-1.909033016322617
 30
0.0
 42
1.00000000000297
  0
SEQEND
  5
F0
  8
DRAFT
  0
POLYLINE
  5
F1
  8
DRAFT
 66
     1
 10
0.0
 20
0.0
 30
0.0
 70
     1
  0
VERTEX
  5
F2
  8
DRAFT
 10
-950.3444591804315
 20
-2.749451252847415
 30
0.0
 42
0.4142135623771131
  0
VERTEX
  5
F3
  8
DRAFT
 10
-950.3160531315815
 20
-2.78330714433927
 30
0.0
  0
VERTEX
  5
F4
  8
DRAFT
 10
-949.8986045370544
 20
-2.819846788605808
 30
0.0
 42
0.4142135623732129
  0
VERTEX
  5
F5
  8
DRAFT
 10
-949.8647486455613
 20
-2.791440739755797
 30
0.0
  0
VERTEX
  5
F6
  8
DRAFT
 10
-949.8172971861889
 20
-2.249329686916454
 30
0.0
 42
0.4142135623696241
  0
VERTEX
  5
F7
  8
DRAFT
 10
-949.845703235039
 20
-2.21547379542437
 30
0.0
  0
VERTEX
  5
F8
  8
DRAFT
 10
-950.2631518295665
 20
-2.178934151158054
 30
0.0
 42
0.4142135623552502
  0
VERTEX
  5
F9
  8
DRAFT
 10
-950.2970077210584
 20
-2.207340200008292
 30
0.0
  0
SEQEND
  5
FA
  8
DRAFT
  0
POLYLINE
  5
FB
  8
DRAFT
 66
     1
 10
0.0
 20
0.0
 30
0.0
  0
VERTEX
  5
FC
  8
DRAFT
 10
-949.7979432502522
 20
-1.731211663623945
 30
0.0
 42
-0.1738231549429508
  0
VERTEX
  5
FD
  8
DRAFT
 10
-949.7290376567053
 20
-1.779884738422437
 30
0.0
  0
VERTEX
  5
FE
  8
DRAFT
 10
-949.461461100691
 20
-2.161427811223412
 30
0.0
 42
0.2214558604973129
  0
VERTEX
  5
FF
  8
DRAFT
 10
-949.4157487064045
 20
-2.187803022322875
 30
0.0
  0
VERTEX
  5
100
  8
DRAFT
 10
-949.3708834092994
 20
-2.191736306981598
 30
0.0
 42
-0.1622776624588609
  0
VERTEX
  5
101
  8
DRAFT
 10
-949.3346183646665
 20
-2.207463562934544
 30
0.0
  0
VERTEX
  5
102
  8
DRAFT
 10
-949.3268627058859
 20
-2.214417466086973
 30
0.0
 42
2.013858596103888
  0
VERTEX
  5
103
  8
DRAFT
 10
-949.3177036079289
 20
-2.114884625631122
 30
0.0
  0
VERTEX
  5
104
  8
DRAFT
 10
-949.3268436063091
 20
-2.120500548308321
 30
0.0
 42
-0.1609716664691487
  0
VERTEX
  5
105
  8
DRAFT
 10
-949.365021318987
 20
-2.129510507292006
 30
0.0
  0
VERTEX
  5
106
  8
DRAFT
 10
-949.3838176774472
 20
-2.127862653980799
 30
0.0
 42
-0.2261705714060543
  0
VERTEX
  5
107
  8
DRAFT
 10
-949.4301662686686
 20
-2.100562719493237
 30
0.0
  0
VERTEX
  5
108
  8
DRAFT
 10
-949.504192686518
 20
-1.990867498182928
 30
0.0
 42
-0.6310043784601308
  0
VERTEX
  5
109
  8
DRAFT
 10
-949.389694141607
 20
-1.796419782231953
 30
0.0
  0
SEQEND
  5
10A
  8
DRAFT
  0
POLYLINE
  5
10B
  8
DRAFT
 66
     1
 10
0.0
 20
0.0
 30
0.0
  0
VERTEX
  5
10C
  8
DRAFT
 10
-948.8053231904697
 20
-1.847499142617572
 30
0.0
 42
-0.2215234308481787
  0
VERTEX
  5
10D
  8
DRAFT
 10
-948.7138663193253
 20
-1.900252373290614
 30
0.0
  0
VERTEX
  5
10E
  8
DRAFT
 10
-948.4697391886663
 20
-2.248359591657428
 30
0.0
 42
0.22145586050689
  0
VERTEX
  5
10F
  8
DRAFT
 10
-948.42402679438
 20
-2.274734802757001
 30
0.0
  0
VERTEX
  5
110
  8
DRAFT
 10
-948.3791614972748
 20
-2.278668087415518
 30
0.0
 42
-0.1622776624686769
  0
VERTEX
  5
111
  8
DRAFT
 10
-948.3428964526418
 20
-2.294395343368126
 30
0.0
  0
VERTEX
  5
112
  8
DRAFT
 10
-948.3351407938612
 20
-2.301349246520773
 30
0.0
 42
2.013858596104904
  0
VERTEX
  5
113
  8
DRAFT
 10
-948.3259816959047
 20
-2.201816406065464
 30
0.0
  0
VERTEX
  5
114
  8
DRAFT
 10
-948.3351216942848
 20
-2.207432328742136
 30
0.0
 42
-0.1609716664657868
  0
VERTEX
  5
115
  8
DRAFT
 10
-948.373299406962
 20
-2.216442287725449
 30
0.0
  0
VERTEX
  5
116
  8
DRAFT
 10
-948.3920957654226
 20
-2.214794434414514
 30
0.0
 42
-0.2261705714096542
  0
VERTEX
  5
117
  8
DRAFT
 10
-948.4384443566446
 20
-2.187494499927327
 30
0.0
  0
VERTEX
  5
118
  8
DRAFT
 10
-948.5126473514832
 20
-2.077537619974414
 30
0.0
 42
-0.6310043784598274
  0
VERTEX
  5
119
  8
DRAFT
 10
-948.3981488065718
 20
-1.883089904023552
 30
0.0
  0
SEQEND
  5
11A
  8
DRAFT
  0
POLYLINE
  5
11B
  8
DRAFT
 66
     1
 10
0.0
 20
0.0
 30
0.0
  0
VERTEX
  5
11C
  8
DRAFT
 10
-948.9360617958647
 20
-3.342145078105368
 30
0.0
 42
0.2214556596415623
  0
VERTEX
  5
11D
  8
DRAFT
 10
-948.8368630134195
 20
-3.306080105493835
 30
0.0
  0
VERTEX
  5
11E
  8
DRAFT
 10
-948.5360334379915
 20
-3.005740835018877
 30
0.0
 42
-0.2214558604963074
  0
VERTEX
  5
11F
  8
DRAFT
 10
-948.4864339990855
 20
-2.987708352880236
 30
0.0
  0
VERTEX
  5
120
  8
DRAFT
 10
-948.4415676273571
 20
-2.99162936046617
 30
0.0
 42
0.1622776624695858
  0
VERTEX
  5
121
  8
DRAFT
 10
-948.4031217508527
 20
-2.982441617442522
 30
0.0
  0
VERTEX
  5
122
  8
DRAFT
 10
-948.394275924362
 20
-2.976940856961825
 30
0.0
 42
-1.989253265099447
  0
VERTEX
  5
123
  8
DRAFT
 10
-948.4025480172436
 20
-3.076551337755741
 30
0.0
  0
VERTEX
  5
124
  8
DRAFT
 10
-948.4105733672899
 20
-3.06943291696637
 30
0.0
 42
0.160971666467887
  0
VERTEX
  5
125
  8
DRAFT
 10
-948.4466052125564
 20
-3.053927329817374
 30
0.0
  0
VERTEX
  5
126
  8
DRAFT
 10
-948.4654020212316
 20
-3.052284619997543
 30
0.0
 42
0.2261705714143506
  0
VERTEX
  5
127
  8
DRAFT
 10
-948.5157886353961
 20
-3.071117236498853
 30
0.0
  0
VERTEX
  5
128
  8
DRAFT
 10
-948.6078116029654
 20
-3.166350771481198
 30
0.0
 42
0.6310947064825412
  0
VERTEX
  5
129
  8
DRAFT
 10
-948.5288035749596
 20
-3.377736288437803
 30
0.0
  0
SEQEND
  5
12A
  8
DRAFT
  0
POLYLINE
  5
12B
  8
DRAFT
 66
     1
 10
0.0
 20
0.0
 30
0.0
  0
VERTEX
  5
12C
  8
DRAFT
 10
-949.9278174458481
 20
-3.255473325088722
 30
0.0
 42
0.2214552436108055
  0
VERTEX
  5
12D
  8
DRAFT
 10
-949.8286188037295
 20
-3.219408492574921
 30
0.0
  0
VERTEX
  5
12E
  8
DRAFT
 10
-949.5277771506754
 20
-2.919058117066264
 30
0.0
 42
-0.2214558604979465
  0
VERTEX
  5
12F
  8
DRAFT
 10
-949.4781777117688
 20
-2.901025634928094
 30
0.0
  0
VERTEX
  5
130
  8
DRAFT
 10
-949.4333113400404
 20
-2.904946642513984
 30
0.0
 42
0.1622776624633671
  0
VERTEX
  5
131
  8
DRAFT
 10
-949.3948654635366
 20
-2.895758899490426
 30
0.0
  0
VERTEX
  5
132
  8
DRAFT
 10
-949.3860196370448
 20
-2.890258139010122
 30
0.0
 42
-1.989253265136916
  0
VERTEX
  5
133
  8
DRAFT
 10
-949.394291729927
 20
-2.989868619803364
 30
0.0
  0
VERTEX
  5
134
  8
DRAFT
 10
-949.4023170799734
 20
-2.982750199014241
 30
0.0
 42
0.1609716664668059
  0
VERTEX
  5
135
  8
DRAFT
 10
-949.4383489252399
 20
-2.967244611864832
 30
0.0
  0
VERTEX
  5
136
  8
DRAFT
 10
-949.4571457339151
 20
-2.965601902045371
 30
0.0
 42
0.2261705714036618
  0
VERTEX
  5
137
  8
DRAFT
 10
-949.5075323480789
 20
-2.984434518546761
 30
0.0
  0
VERTEX
  5
138
  8
DRAFT
 10
-949.5995660154321
 20
-3.079679126613776
 30
0.0
 42
0.6310947064790919
  0
VERTEX
  5
139
  8
DRAFT
 10
-949.5205579874256
 20
-3.291064643569989
 30
0.0
  0
SEQEND
  5
13A
  8
DRAFT
  0
POLYLINE
  5
13B
  8
DRAFT
 66
     1
 10
0.0
 20
0.0
 30
0.0
  0
VERTEX
  5
13C
  8
DRAFT
 10
-948.2721183896441
 20
-3.400168583110919
 30
0.0
 42
0.4141732650310712
  0
VERTEX
  5
13D
  8
DRAFT
 10
-947.8658990901583
 20
-3.059291501525344
 30
0.0
  0
VERTEX
  5
13E
  8
DRAFT
 10
-947.8004711737216
 20
-2.311807712121002
 30
0.0
 42
0.4142489508379259
  0
VERTEX
  5
13F
  8
DRAFT
 10
-948.1413888959302
 20
-1.905533066167027
 30
0.0
  0
SEQEND
  5
140
  8
DRAFT
  0
LINE
  5
141
  8
DRAFT
 10
-961.7722938637586
 20
-12.73810609405562
 30
0.0
 11
-961.7877348836388
 21
-12.56161442921687
 31
0.0
  0
POLYLINE
  5
142
  8
DRAFT
 66
     1
 10
0.0
 20
0.0
 30
0.0
  0
VERTEX
  5
143
  8
DRAFT
 10
-964.2308198162501
 20
-13.59158464565474
 30
0.0
  0
VERTEX
  5
144
  8
DRAFT
 10
-964.2556071780608
 20
-13.59375088709782
 30
0.0
 42
-0.1624911418066575
  0
VERTEX
  5
145
  8
DRAFT
 10
-964.3313215114941
 20
-13.57609858132742
 30
0.0
 42
-0.0901239739954795
  0
VERTEX
  5
146
  8
DRAFT
 10
-964.4659535581239
 20
-13.45537600350215
 30
0.0
 42
-0.2945408183498636
  0
VERTEX
  5
147
  8
DRAFT
 10
-964.499876737198
 20
-13.06720781044841
 30
0.0
 42
-0.0931204833714409
  0
VERTEX
  5
148
  8
DRAFT
 10
-964.388226295734
 20
-12.92496186956568
 30
0.0
 42
-0.1594425821257349
  0
VERTEX
  5
149
  8
DRAFT
 10
-964.316721727345
 20
-12.89444366375774
 30
0.0
  0
VERTEX
  5
14A
  8
DRAFT
 10
-964.291934365573
 20
-12.89227742187118
 30
0.0
  0
SEQEND
  5
14B
  8
DRAFT
  0
POLYLINE
  5
14C
  8
DRAFT
 66
     1
 10
0.0
 20
0.0
 30
0.0
 70
     1
  0
VERTEX
  5
14D
  8
DRAFT
 10
-961.7877348836388
 20
-12.56161442921687
 30
0.0
  0
VERTEX
  5
14E
  8
DRAFT
 10
-961.7235475586039
 20
-13.29527891153823
 30
0.0
 42
-0.4142135330970341
  0
VERTEX
  5
14F
  8
DRAFT
 10
-961.7519550228454
 20
-13.32913361254223
 30
0.0
  0
VERTEX
  5
150
  8
DRAFT
 10
-962.2779968057124
 20
-13.37515635809282
 30
0.0
 42
-0.4142135777744969
  0
VERTEX
  5
151
  8
DRAFT
 10
-962.3118515099724
 20
-13.34674889248596
 30
0.0
  0
VERTEX
  5
152
  8
DRAFT
 10
-962.3760388700551
 20
-12.61308440998776
 30
0.0
 42
-1.000000000027469
  0
VERTEX
  5
153
  8
DRAFT
 10
-962.3361910821316
 20
-12.60959818027803
 30
0.0
  0
VERTEX
  5
154
  8
DRAFT
 10
-962.3234736519618
 20
-12.75495873741463
 30
0.0
 42
0.4142135183775051
  0
VERTEX
  5
155
  8
DRAFT
 10
-962.2896189496793
 20
-12.78336619840661
 30
0.0
  0
VERTEX
  5
156
  8
DRAFT
 10
-961.8432727343107
 20
-12.74431594214045
 30
0.0
 42
0.4142135477732888
  0
VERTEX
  5
157
  8
DRAFT
 10
-961.8148652685076
 20
-12.71046124100004
 30
0.0
  0
VERTEX
  5
158
  8
DRAFT
 10
-961.8275826715627
 20
-12.56510065892687
 30
0.0
 42
-1.000000000007711
  0
SEQEND
  5
159
  8
DRAFT
  0
POLYLINE
  5
15A
  8
DRAFT
 66
     1
 10
0.0
 20
0.0
 30
0.0
 70
     1
  0
VERTEX
  5
15B
  8
DRAFT
 10
-962.892014769236
 20
-13.40551889545169
 30
0.0
 42
-0.4142135623754938
  0
VERTEX
  5
15C
  8
DRAFT
 10
-962.920420818086
 20
-13.4393747869436
 30
0.0
  0
VERTEX
  5
15D
  8
DRAFT
 10
-963.337869412613
 20
-13.47591443121008
 30
0.0
 42
-0.4142135623743164
  0
VERTEX
  5
15E
  8
DRAFT
 10
-963.3717253041063
 20
-13.44750838236008
 30
0.0
  0
VERTEX
  5
15F
  8
DRAFT
 10
-963.4191767634785
 20
-12.9053973295207
 30
0.0
 42
-0.414213562381515
  0
VERTEX
  5
160
  8
DRAFT
 10
-963.3907707146285
 20
-12.8715414380287
 30
0.0
  0
VERTEX
  5
161
  8
DRAFT
 10
-962.973322120101
 20
-12.83500179376236
 30
0.0
 42
-0.4142135623604699
  0
VERTEX
  5
162
  8
DRAFT
 10
-962.9394662286091
 20
-12.86340784261255
 30
0.0
  0
SEQEND
  5
163
  8
DRAFT
  0
POLYLINE
  5
164
  8
DRAFT
 66
     1
 10
0.0
 20
0.0
 30
0.0
  0
VERTEX
  5
165
  8
DRAFT
 10
-963.4385306994153
 20
-12.3872793062282
 30
0.0
 42
0.1738231549416368
  0
VERTEX
  5
166
  8
DRAFT
 10
-963.5074362929622
 20
-12.43595238102669
 30
0.0
  0
VERTEX
  5
167
  8
DRAFT
 10
-963.7750128489764
 20
-12.81749545382767
 30
0.0
 42
-0.2214558604980249
  0
VERTEX
  5
168
  8
DRAFT
 10
-963.8207252432629
 20
-12.84387066492721
 30
0.0
  0
VERTEX
  5
169
  8
DRAFT
 10
-963.8655905403681
 20
-12.84780394958591
 30
0.0
 42
0.1622776624528541
  0
VERTEX
  5
16A
  8
DRAFT
 10
-963.9018555850009
 20
-12.86353120553882
 30
0.0
  0
VERTEX
  5
16B
  8
DRAFT
 10
-963.9096112437816
 20
-12.87048510869122
 30
0.0
 42
-2.013858596097164
  0
VERTEX
  5
16C
  8
DRAFT
 10
-963.9187703417384
 20
-12.77095226823545
 30
0.0
  0
VERTEX
  5
16D
  8
DRAFT
 10
-963.9096303433583
 20
-12.77656819091258
 30
0.0
 42
0.1609716664712484
  0
VERTEX
  5
16E
  8
DRAFT
 10
-963.8714526306804
 20
-12.78557814989631
 30
0.0
  0
VERTEX
  5
16F
  8
DRAFT
 10
-963.8526562722203
 20
-12.78393029658503
 30
0.0
 42
0.2261705714142358
  0
VERTEX
  5
170
  8
DRAFT
 10
-963.8063076809989
 20
-12.75663036209757
 30
0.0
  0
VERTEX
  5
171
  8
DRAFT
 10
-963.7322812631495
 20
-12.64693514078719
 30
0.0
 42
0.6310043784601495
  0
VERTEX
  5
172
  8
DRAFT
 10
-963.8467798080604
 20
-12.4524874248362
 30
0.0
  0
SEQEND
  5
173
  8
DRAFT
  0
POLYLINE
  5
174
  8
DRAFT
 66
     1
 10
0.0
 20
0.0
 30
0.0
  0
VERTEX
  5
175
  8
DRAFT
 10
-964.4311507591977
 20
-12.50356678522183
 30
0.0
 42
0.2215234308489902
  0
VERTEX
  5
176
  8
DRAFT
 10
-964.5226076303421
 20
-12.55632001589487
 30
0.0
  0
VERTEX
  5
177
  8
DRAFT
 10
-964.7667347610012
 20
-12.90442723426169
 30
0.0
 42
-0.2214558604998494
  0
VERTEX
  5
178
  8
DRAFT
 10
-964.8124471552875
 20
-12.9308024453613
 30
0.0
  0
VERTEX
  5
179
  8
DRAFT
 10
-964.8573124523926
 20
-12.93473573001979
 30
0.0
 42
0.1622776624721227
  0
VERTEX
  5
17A
  8
DRAFT
 10
-964.8935774970256
 20
-12.95046298597234
 30
0.0
  0
VERTEX
  5
17B
  8
DRAFT
 10
-964.9013331558061
 20
-12.95741688912506
 30
0.0
 42
-2.013858596103202
  0
VERTEX
  5
17C
  8
DRAFT
 10
-964.9104922537628
 20
-12.85788404866977
 30
0.0
  0
VERTEX
  5
17D
  8
DRAFT
 10
-964.9013522553827
 20
-12.86349997134639
 30
0.0
 42
0.1609716664669402
  0
VERTEX
  5
17E
  8
DRAFT
 10
-964.8631745427055
 20
-12.87250993032977
 30
0.0
  0
VERTEX
  5
17F
  8
DRAFT
 10
-964.8443781842449
 20
-12.87086207701879
 30
0.0
 42
0.2261705714103868
  0
VERTEX
  5
180
  8
DRAFT
 10
-964.798029593023
 20
-12.84356214253158
 30
0.0
  0
VERTEX
  5
181
  8
DRAFT
 10
-964.7238265981842
 20
-12.73360526257867
 30
0.0
 42
0.6310043784630209
  0
VERTEX
  5
182
  8
DRAFT
 10
-964.8383251430956
 20
-12.53915754662765
 30
0.0
  0
SEQEND
  5
183
  8
DRAFT
  0
POLYLINE
  5
184
  8
DRAFT
 66
     1
 10
0.0
 20
0.0
 30
0.0
  0
VERTEX
  5
185
  8
DRAFT
 10
-964.3004121538028
 20
-13.99821272070964
 30
0.0
 42
-0.2214556596403759
  0
VERTEX
  5
186
  8
DRAFT
 10
-964.3996109362481
 20
-13.96214774809814
 30
0.0
  0
VERTEX
  5
187
  8
DRAFT
 10
-964.700440511676
 20
-13.66180847762315
 30
0.0
 42
0.2214558605008984
  0
VERTEX
  5
188
  8
DRAFT
 10
-964.7500399505819
 20
-13.64377599548464
 30
0.0
  0
VERTEX
  5
189
  8
DRAFT
 10
-964.7949063223103
 20
-13.64769700307042
 30
0.0
 42
-0.1622776624704942
  0
VERTEX
  5
18A
  8
DRAFT
 10
-964.8333521988146
 20
-13.63850926004665
 30
0.0
  0
VERTEX
  5
18B
  8
DRAFT
 10
-964.8421980253055
 20
-13.63300849956608
 30
0.0
 42
1.989253265108448
  0
VERTEX
  5
18C
  8
DRAFT
 10
-964.8339259324239
 20
-13.73261898036003
 30
0.0
  0
VERTEX
  5
18D
  8
DRAFT
 10
-964.8259005823776
 20
-13.72550055957064
 30
0.0
 42
-0.1609716664630474
  0
VERTEX
  5
18E
  8
DRAFT
 10
-964.7898687371111
 20
-13.70999497242159
 30
0.0
  0
VERTEX
  5
18F
  8
DRAFT
 10
-964.7710719284358
 20
-13.70835226260181
 30
0.0
 42
-0.2261705714154446
  0
VERTEX
  5
190
  8
DRAFT
 10
-964.7206853142715
 20
-13.72718487910308
 30
0.0
  0
VERTEX
  5
191
  8
DRAFT
 10
-964.6286623467021
 20
-13.82241841408547
 30
0.0
 42
-0.6310947064770579
  0
VERTEX
  5
192
  8
DRAFT
 10
-964.7076703747078
 20
-14.03380393104229
 30
0.0
  0
SEQEND
  5
193
  8
DRAFT
  0
POLYLINE
  5
194
  8
DRAFT
 66
     1
 10
0.0
 20
0.0
 30
0.0
  0
VERTEX
  5
195
  8
DRAFT
 10
-963.3086565038194
 20
-13.91154096769299
 30
0.0
 42
-0.2214552436098303
  0
VERTEX
  5
196
  8
DRAFT
 10
-963.4078551459382
 20
-13.87547613517926
 30
0.0
  0
VERTEX
  5
197
  8
DRAFT
 10
-963.708696798992
 20
-13.57512575967053
 30
0.0
 42
0.2214558604955076
  0
VERTEX
  5
198
  8
DRAFT
 10
-963.7582962378987
 20
-13.55709327753232
 30
0.0
  0
VERTEX
  5
199
  8
DRAFT
 10
-963.8031626096271
 20
-13.56101428511817
 30
0.0
 42
-0.1622776624641239
  0
VERTEX
  5
19A
  8
DRAFT
 10
-963.8416084861309
 20
-13.55182654209465
 30
0.0
  0
VERTEX
  5
19B
  8
DRAFT
 10
-963.8504543126227
 20
-13.54632578161438
 30
0.0
 42
1.98925326512736
  0
VERTEX
  5
19C
  8
DRAFT
 10
-963.8421822197405
 20
-13.64593626240763
 30
0.0
  0
VERTEX
  5
19D
  8
DRAFT
 10
-963.8341568696941
 20
-13.63881784161851
 30
0.0
 42
-0.1609716664575196
  0
VERTEX
  5
19E
  8
DRAFT
 10
-963.7981250244276
 20
-13.62331225446903
 30
0.0
  0
VERTEX
  5
19F
  8
DRAFT
 10
-963.7793282157523
 20
-13.62166954464968
 30
0.0
 42
-0.2261705714019487
  0
VERTEX
  5
1A0
  8
DRAFT
 10
-963.7289416015886
 20
-13.64050216115109
 30
0.0
  0
VERTEX
  5
1A1
  8
DRAFT
 10
-963.6369079342354
 20
-13.73574676921801
 30
0.0
 42
-0.6310947064885297
  0
VERTEX
  5
1A2
  8
DRAFT
 10
-963.715915962242
 20
-13.94713228617417
 30
0.0
  0
SEQEND
  5
1A3
  8
DRAFT
  0
POLYLINE
  5
1A4
  8
DRAFT
 66
     1
 10
0.0
 20
0.0
 30
0.0
  0
VERTEX
  5
1A5
  8
DRAFT
 10
-964.9643555600234
 20
-14.05623622571519
 30
0.0
 42
-0.414173265031434
  0
VERTEX
  5
1A6
  8
DRAFT
 10
-965.3705748595091
 20
-13.71535914412962
 30
0.0
  0
VERTEX
  5
1A7
  8
DRAFT
 10
-965.4360027759459
 20
-12.96787535472527
 30
0.0
 42
-0.4142489508374549
  0
VERTEX
  5
1A8
  8
DRAFT
 10
-965.0950850537373
 20
-12.56160070877142
 30
0.0
  0
SEQEND
  5
1A9
  8
DRAFT
  0
LINE
  5
1AA
  8
DRAFT
 10
-951.4641800860774
 20
-12.73810609405562
 30
0.0
 11
-951.4487390661972
 21
-12.56161442921687
 31
0.0
  0
POLYLINE
  5
1AB
  8
DRAFT
 66
     1
 10
0.0
 20
0.0
 30
0.0
  0
VERTEX
  5
1AC
  8
DRAFT
 10
-949.0056541335858
 20
-13.59158464565474
 30
0.0
  0
VERTEX
  5
1AD
  8
DRAFT
 10
-948.9808667717751
 20
-13.59375088709778
 30
0.0
 42
0.1624911418066711
  0
VERTEX
  5
1AE
  8
DRAFT
 10
-948.9051524383419
 20
-13.57609858132743
 30
0.0
 42
0.0901239739967323
  0
VERTEX
  5
1AF
  8
DRAFT
 10
-948.770520391712
 20
-13.45537600350216
 30
0.0
 42
0.2945408183496172
  0
VERTEX
  5
1B0
  8
DRAFT
 10
-948.736597212638
 20
-13.06720781044843
 30
0.0
 42
0.0931204833696505
  0
VERTEX
  5
1B1
  8
DRAFT
 10
-948.8482476541021
 20
-12.92496186956573
 30
0.0
 42
0.1594425821232366
  0
VERTEX
  5
1B2
  8
DRAFT
 10
-948.919752222491
 20
-12.89444366375762
 30
0.0
  0
VERTEX
  5
1B3
  8
DRAFT
 10
-948.944539584263
 20
-12.89227742187118
 30
0.0
  0
SEQEND
  5
1B4
  8
DRAFT
  0
POLYLINE
  5
1B5
  8
DRAFT
 66
     1
 10
0.0
 20
0.0
 30
0.0
 70
     1
  0
VERTEX
  5
1B6
  8
DRAFT
 10
-951.4487390661972
 20
-12.56161442921687
 30
0.0
  0
VERTEX
  5
1B7
  8
DRAFT
 10
-951.5129263912321
 20
-13.29527891153823
 30
0.0
 42
0.4142135331059723
  0
VERTEX
  5
1B8
  8
DRAFT
 10
-951.4845189269904
 20
-13.3291336125422
 30
0.0
  0
VERTEX
  5
1B9
  8
DRAFT
 10
-950.9584771441235
 20
-13.37515635809273
 30
0.0
 42
0.4142135777905178
  0
VERTEX
  5
1BA
  8
DRAFT
 10
-950.9246224398634
 20
-13.34674889248597
 30
0.0
  0
VERTEX
  5
1BB
  8
DRAFT
 10
-950.8604350797808
 20
-12.61308440998776
 30
0.0
 42
0.9999999999930603
  0
VERTEX
  5
1BC
  8
DRAFT
 10
-950.900282867704
 20
-12.60959818027804
 30
0.0
  0
VERTEX
  5
1BD
  8
DRAFT
 10
-950.9130002978742
 20
-12.75495873741463
 30
0.0
 42
-0.4142135183714454
  0
VERTEX
  5
1BE
  8
DRAFT
 10
-950.9468550001568
 20
-12.78336619840657
 30
0.0
  0
VERTEX
  5
1BF
  8
DRAFT
 10
-951.3932012155252
 20
-12.74431594214045
 30
0.0
 42
-0.4142135477799444
  0
VERTEX
  5
1C0
  8
DRAFT
 10
-951.4216086813285
 20
-12.71046124100004
 30
0.0
  0
VERTEX
  5
1C1
  8
DRAFT
 10
-951.4088912782732
 20
-12.56510065892687
 30
0.0
 42
1.000000000016002
  0
SEQEND
  5
1C2
  8
DRAFT
  0
POLYLINE
  5
1C3
  8
DRAFT
 66
     1
 10
0.0
 20
0.0
 30
0.0
 70
     1
  0
VERTEX
  5
1C4
  8
DRAFT
 10
-950.3444591806
 20
-13.40551889545169
 30
0.0
 42
0.4142135623754938
  0
VERTEX
  5
1C5
  8
DRAFT
 10
-950.31605313175
 20
-13.4393747869436
 30
0.0
  0
VERTEX
  5
1C6
  8
DRAFT
 10
-949.8986045372229
 20
-13.47591443121008
 30
0.0
 42
0.4142135623760213
  0
VERTEX
  5
1C7
  8
DRAFT
 10
-949.8647486457297
 20
-13.44750838236008
 30
0.0
  0
VERTEX
  5
1C8
  8
DRAFT
 10
-949.8172971863575
 20
-12.9053973295207
 30
0.0
 42
0.4142135623735557
  0
VERTEX
  5
1C9
  8
DRAFT
 10
-949.8457032352075
 20
-12.87154143802839
 30
0.0
  0
VERTEX
  5
1CA
  8
DRAFT
 10
-950.263151829735
 20
-12.83500179376229
 30
0.0
 42
0.4142135623625137
  0
VERTEX
  5
1CB
  8
DRAFT
 10
-950.2970077212271
 20
-12.86340784261253
 30
0.0
  0
SEQEND
  5
1CC
  8
DRAFT
  0
POLYLINE
  5
1CD
  8
DRAFT
 66
     1
 10
0.0
 20
0.0
 30
0.0
  0
VERTEX
  5
1CE
  8
DRAFT
 10
-949.7979432504206
 20
-12.3872793062282
 30
0.0
 42
-0.1738231549401123
  0
VERTEX
  5
1CF
  8
DRAFT
 10
-949.7290376568736
 20
-12.43595238102663
 30
0.0
  0
VERTEX
  5
1D0
  8
DRAFT
 10
-949.4614611008595
 20
-12.81749545382767
 30
0.0
 42
0.2214558604960798
  0
VERTEX
  5
1D1
  8
DRAFT
 10
-949.415748706573
 20
-12.84387066492719
 30
0.0
  0
VERTEX
  5
1D2
  8
DRAFT
 10
-949.3708834094679
 20
-12.84780394958591
 30
0.0
 42
-0.1622776624578417
  0
VERTEX
  5
1D3
  8
DRAFT
 10
-949.3346183648349
 20
-12.86353120553875
 30
0.0
  0
VERTEX
  5
1D4
  8
DRAFT
 10
-949.3268627060544
 20
-12.87048510869121
 30
0.0
 42
2.013858596103394
  0
VERTEX
  5
1D5
  8
DRAFT
 10
-949.3177036080975
 20
-12.77095226823534
 30
0.0
  0
VERTEX
  5
1D6
  8
DRAFT
 10
-949.3268436064776
 20
-12.77656819091258
 30
0.0
 42
-0.1609716664696095
  0
VERTEX
  5
1D7
  8
DRAFT
 10
-949.3650213191555
 20
-12.78557814989629
 30
0.0
  0
VERTEX
  5
1D8
  8
DRAFT
 10
-949.3838176776156
 20
-12.78393029658508
 30
0.0
 42
-0.2261705714064872
  0
VERTEX
  5
1D9
  8
DRAFT
 10
-949.430166268837
 20
-12.75663036209758
 30
0.0
  0
VERTEX
  5
1DA
  8
DRAFT
 10
-949.5041926866866
 20
-12.64693514078726
 30
0.0
 42
-0.6310043784648043
  0
VERTEX
  5
1DB
  8
DRAFT
 10
-949.3896941417755
 20
-12.45248742483663
 30
0.0
  0
SEQEND
  5
1DC
  8
DRAFT
  0
POLYLINE
  5
1DD
  8
DRAFT
 66
     1
 10
0.0
 20
0.0
 30
0.0
  0
VERTEX
  5
1DE
  8
DRAFT
 10
-948.8053231906382
 20
-12.50356678522183
 30
0.0
 42
-0.2215234308491759
  0
VERTEX
  5
1DF
  8
DRAFT
 10
-948.713866319494
 20
-12.55632001589497
 30
0.0
  0
VERTEX
  5
1E0
  8
DRAFT
 10
-948.4697391888348
 20
-12.90442723426168
 30
0.0
 42
0.2214558605077161
  0
VERTEX
  5
1E1
  8
DRAFT
 10
-948.4240267945485
 20
-12.93080244536114
 30
0.0
  0
VERTEX
  5
1E2
  8
DRAFT
 10
-948.3791614974433
 20
-12.93473573001979
 30
0.0
 42
-0.162277662470414
  0
VERTEX
  5
1E3
  8
DRAFT
 10
-948.3428964528104
 20
-12.95046298597238
 30
0.0
  0
VERTEX
  5
1E4
  8
DRAFT
 10
-948.3351407940298
 20
-12.95741688912507
 30
0.0
 42
2.013858596097368
  0
VERTEX
  5
1E5
  8
DRAFT
 10
-948.3259816960732
 20
-12.85788404866963
 30
0.0
  0
VERTEX
  5
1E6
  8
DRAFT
 10
-948.3351216944533
 20
-12.86349997134639
 30
0.0
 42
-0.1609716664681214
  0
VERTEX
  5
1E7
  8
DRAFT
 10
-948.3732994071305
 20
-12.87250993032962
 30
0.0
  0
VERTEX
  5
1E8
  8
DRAFT
 10
-948.3920957655911
 20
-12.87086207701882
 30
0.0
 42
-0.2261705714078106
  0
VERTEX
  5
1E9
  8
DRAFT
 10
-948.438444356813
 20
-12.84356214253156
 30
0.0
  0
VERTEX
  5
1EA
  8
DRAFT
 10
-948.5126473516517
 20
-12.73360526257867
 30
0.0
 42
-0.6310043784597987
  0
VERTEX
  5
1EB
  8
DRAFT
 10
-948.3981488067403
 20
-12.53915754662782
 30
0.0
  0
SEQEND
  5
1EC
  8
DRAFT
  0
POLYLINE
  5
1ED
  8
DRAFT
 66
     1
 10
0.0
 20
0.0
 30
0.0
  0
VERTEX
  5
1EE
  8
DRAFT
 10
-948.9360617960332
 20
-13.99821272070964
 30
0.0
 42
0.2214556596403685
  0
VERTEX
  5
1EF
  8
DRAFT
 10
-948.8368630135877
 20
-13.96214774809814
 30
0.0
  0
VERTEX
  5
1F0
  8
DRAFT
 10
-948.53603343816
 20
-13.66180847762315
 30
0.0
 42
-0.2214558604996708
  0
VERTEX
  5
1F1
  8
DRAFT
 10
-948.486433999254
 20
-13.64377599548464
 30
0.0
  0
VERTEX
  5
1F2
  8
DRAFT
 10
-948.4415676275256
 20
-13.64769700307044
 30
0.0
 42
0.1622776624695465
  0
VERTEX
  5
1F3
  8
DRAFT
 10
-948.4031217510213
 20
-13.63850926004673
 30
0.0
  0
VERTEX
  5
1F4
  8
DRAFT
 10
-948.3942759245305
 20
-13.63300849956608
 30
0.0
 42
-1.989253265097545
  0
VERTEX
  5
1F5
  8
DRAFT
 10
-948.402548017412
 20
-13.73261898035999
 30
0.0
  0
VERTEX
  5
1F6
  8
DRAFT
 10
-948.4105733674584
 20
-13.72550055957064
 30
0.0
 42
0.1609716664680292
  0
VERTEX
  5
1F7
  8
DRAFT
 10
-948.4466052127249
 20
-13.70999497242163
 30
0.0
  0
VERTEX
  5
1F8
  8
DRAFT
 10
-948.4654020214001
 20
-13.70835226260181
 30
0.0
 42
0.2261705714154446
  0
VERTEX
  5
1F9
  8
DRAFT
 10
-948.5157886355645
 20
-13.72718487910308
 30
0.0
  0
VERTEX
  5
1FA
  8
DRAFT
 10
-948.6078116031339
 20
-13.82241841408547
 30
0.0
 42
0.6310947064826985
  0
VERTEX
  5
1FB
  8
DRAFT
 10
-948.5288035751281
 20
-14.03380393104215
 30
0.0
  0
SEQEND
  5
1FC
  8
DRAFT
  0
POLYLINE
  5
1FD
  8
DRAFT
 66
     1
 10
0.0
 20
0.0
 30
0.0
  0
VERTEX
  5
1FE
  8
DRAFT
 10
-949.9278174460165
 20
-13.91154096769299
 30
0.0
 42
0.2214552436093537
  0
VERTEX
  5
1FF
  8
DRAFT
 10
-949.8286188038978
 20
-13.87547613517925
 30
0.0
  0
VERTEX
  5
200
  8
DRAFT
 10
-949.5277771508439
 20
-13.57512575967053
 30
0.0
 42
-0.2214558604978118
  0
VERTEX
  5
201
  8
DRAFT
 10
-949.4781777119373
 20
-13.55709327753228
 30
0.0
  0
VERTEX
  5
202
  8
DRAFT
 10
-949.433311340209
 20
-13.56101428511829
 30
0.0
 42
0.1622776624624905
  0
VERTEX
  5
203
  8
DRAFT
 10
-949.394865463705
 20
-13.55182654209471
 30
0.0
  0
VERTEX
  5
204
  8
DRAFT
 10
-949.3860196372133
 20
-13.54632578161438
 30
0.0
 42
-1.989253265127808
  0
VERTEX
  5
205
  8
DRAFT
 10
-949.3942917300955
 20
-13.64593626240759
 30
0.0
  0
VERTEX
  5
206
  8
DRAFT
 10
-949.4023170801419
 20
-13.63881784161851
 30
0.0
 42
0.1609716664659348
  0
VERTEX
  5
207
  8
DRAFT
 10
-949.4383489254084
 20
-13.62331225446918
 30
0.0
  0
VERTEX
  5
208
  8
DRAFT
 10
-949.4571457340836
 20
-13.62166954464967
 30
0.0
 42
0.2261705714030274
  0
VERTEX
  5
209
  8
DRAFT
 10
-949.5075323482474
 20
-13.64050216115107
 30
0.0
  0
VERTEX
  5
20A
  8
DRAFT
 10
-949.5995660156005
 20
-13.735746769218
 30
0.0
 42
0.631094706481198
  0
VERTEX
  5
20B
  8
DRAFT
 10
-949.520557987594
 20
-13.94713228617426
 30
0.0
  0
SEQEND
  5
20C
  8
DRAFT
  0
POLYLINE
  5
20D
  8
DRAFT
 66
     1
 10
0.0
 20
0.0
 30
0.0
  0
VERTEX
  5
20E
  8
DRAFT
 10
-948.2721183898126
 20
-14.05623622571519
 30
0.0
 42
0.4141732650314402
  0
VERTEX
  5
20F
  8
DRAFT
 10
-947.8658990903266
 20
-13.71535914412963
 30
0.0
  0
VERTEX
  5
210
  8
DRAFT
 10
-947.8004711738901
 20
-12.96787535472527
 30
0.0
 42
0.4142489508380145
  0
VERTEX
  5
211
  8
DRAFT
 10
-948.1413888960986
 20
-12.56160070877158
 30
0.0
  0
SEQEND
  5
212
  8
DRAFT
  0
LINE
  5
213
  8
DRAFT
 10
-961.7722938637586
 20
-23.39417373665987
 30
0.0
 11
-961.7877348836388
 21
-23.21768207182112
 31
0.0
  0
POLYLINE
  5
214
  8
DRAFT
 66
     1
 10
0.0
 20
0.0
 30
0.0
  0
VERTEX
  5
215
  8
DRAFT
 10
-964.2308198162501
 20
-24.24765228825898
 30
0.0
  0
VERTEX
  5
216
  8
DRAFT
 10
-964.2556071780608
 20
-24.24981852970206
 30
0.0
 42
-0.162491141806705
  0
VERTEX
  5
217
  8
DRAFT
 10
-964.3313215114941
 20
-24.23216622393171
 30
0.0
 42
-0.0901239739955706
  0
VERTEX
  5
218
  8
DRAFT
 10
-964.4659535581239
 20
-24.11144364610641
 30
0.0
 42
-0.2945408183496209
  0
VERTEX
  5
219
  8
DRAFT
 10
-964.4998767371978
 20
-23.72327545305269
 30
0.0
 42
-0.093120483372999
  0
VERTEX
  5
21A
  8
DRAFT
 10
-964.3882262957338
 20
-23.58102951216992
 30
0.0
 42
-0.1594425821280352
  0
VERTEX
  5
21B
  8
DRAFT
 10
-964.3167217273449
 20
-23.55051130636196
 30
0.0
  0
VERTEX
  5
21C
  8
DRAFT
 10
-964.291934365573
 20
-23.54834506447543
 30
0.0
  0
SEQEND
  5
21D
  8
DRAFT
  0
POLYLINE
  5
21E
  8
DRAFT
 66
     1
 10
0.0
 20
0.0
 30
0.0
 70
     1
  0
VERTEX
  5
21F
  8
DRAFT
 10
-961.7877348836388
 20
-23.21768207182112
 30
0.0
  0
VERTEX
  5
220
  8
DRAFT
 10
-961.7235475586039
 20
-23.95134655414247
 30
0.0
 42
-0.4142135330948091
  0
VERTEX
  5
221
  8
DRAFT
 10
-961.7519550228454
 20
-23.98520125514667
 30
0.0
  0
VERTEX
  5
222
  8
DRAFT
 10
-962.2779968057124
 20
-24.03122400069711
 30
0.0
 42
-0.4142135777769278
  0
VERTEX
  5
223
  8
DRAFT
 10
-962.3118515099721
 20
-24.00281653509019
 30
0.0
  0
VERTEX
  5
224
  8
DRAFT
 10
-962.3760388700551
 20
-23.26915205259201
 30
0.0
 42
-1.000000000017779
  0
VERTEX
  5
225
  8
DRAFT
 10
-962.3361910821314
 20
-23.26566582288226
 30
0.0
  0
VERTEX
  5
226
  8
DRAFT
 10
-962.3234736519618
 20
-23.41102638001889
 30
0.0
 42
0.4142135183775287
  0
VERTEX
  5
227
  8
DRAFT
 10
-962.2896189496793
 20
-23.43943384101087
 30
0.0
  0
VERTEX
  5
228
  8
DRAFT
 10
-961.8432727343107
 20
-23.40038358474471
 30
0.0
 42
0.4142135477739078
  0
VERTEX
  5
229
  8
DRAFT
 10
-961.8148652685074
 20
-23.36652888360429
 30
0.0
  0
VERTEX
  5
22A
  8
DRAFT
 10
-961.8275826715627
 20
-23.22116830153113
 30
0.0
 42
-0.999999999995585
  0
SEQEND
  5
22B
  8
DRAFT
  0
POLYLINE
  5
22C
  8
DRAFT
 66
     1
 10
0.0
 20
0.0
 30
0.0
 70
     1
  0
VERTEX
  5
22D
  8
DRAFT
 10
-962.892014769236
 20
-24.06158653805593
 30
0.0
 42
-0.4142135623807763
  0
VERTEX
  5
22E
  8
DRAFT
 10
-962.920420818086
 20
-24.0954424295477
 30
0.0
  0
VERTEX
  5
22F
  8
DRAFT
 10
-963.337869412613
 20
-24.13198207381432
 30
0.0
 42
-0.4142135623804695
  0
VERTEX
  5
230
  8
DRAFT
 10
-963.3717253041065
 20
-24.10357602496434
 30
0.0
  0
VERTEX
  5
231
  8
DRAFT
 10
-963.4191767634784
 20
-23.56146497212495
 30
0.0
 42
-0.414213562384259
  0
VERTEX
  5
232
  8
DRAFT
 10
-963.3907707146285
 20
-23.52760908063303
 30
0.0
  0
VERTEX
  5
233
  8
DRAFT
 10
-962.973322120101
 20
-23.49106943636666
 30
0.0
 42
-0.4142135623547479
  0
VERTEX
  5
234
  8
DRAFT
 10
-962.939466228609
 20
-23.51947548521681
 30
0.0
  0
SEQEND
  5
235
  8
DRAFT
  0
POLYLINE
  5
236
  8
DRAFT
 66
     1
 10
0.0
 20
0.0
 30
0.0
  0
VERTEX
  5
237
  8
DRAFT
 10
-963.4385306994153
 20
-23.04334694883246
 30
0.0
 42
0.1738231549415864
  0
VERTEX
  5
238
  8
DRAFT
 10
-963.5074362929622
 20
-23.09202002363096
 30
0.0
  0
VERTEX
  5
239
  8
DRAFT
 10
-963.7750128489764
 20
-23.47356309643192
 30
0.0
 42
-0.2214558604995549
  0
VERTEX
  5
23A
  8
DRAFT
 10
-963.8207252432629
 20
-23.49993830753134
 30
0.0
  0
VERTEX
  5
23B
  8
DRAFT
 10
-963.865590540368
 20
-23.50387159219025
 30
0.0
 42
0.1622776624551982
  0
VERTEX
  5
23C
  8
DRAFT
 10
-963.9018555850009
 20
-23.51959884814301
 30
0.0
  0
VERTEX
  5
23D
  8
DRAFT
 10
-963.9096112437816
 20
-23.52655275129548
 30
0.0
 42
-2.013858596094633
  0
VERTEX
  5
23E
  8
DRAFT
 10
-963.9187703417384
 20
-23.42701991083968
 30
0.0
  0
VERTEX
  5
23F
  8
DRAFT
 10
-963.9096303433583
 20
-23.43263583351683
 30
0.0
 42
0.1609716664714582
  0
VERTEX
  5
240
  8
DRAFT
 10
-963.8714526306803
 20
-23.44164579250052
 30
0.0
  0
VERTEX
  5
241
  8
DRAFT
 10
-963.8526562722203
 20
-23.43999793918925
 30
0.0
 42
0.2261705714127475
  0
VERTEX
  5
242
  8
DRAFT
 10
-963.806307680999
 20
-23.4126980047018
 30
0.0
  0
VERTEX
  5
243
  8
DRAFT
 10
-963.7322812631495
 20
-23.30300278339151
 30
0.0
 42
0.6310043784619239
  0
VERTEX
  5
244
  8
DRAFT
 10
-963.8467798080604
 20
-23.10855506744073
 30
0.0
  0
SEQEND
  5
245
  8
DRAFT
  0
POLYLINE
  5
246
  8
DRAFT
 66
     1
 10
0.0
 20
0.0
 30
0.0
  0
VERTEX
  5
247
  8
DRAFT
 10
-964.4311507591977
 20
-23.15963442782608
 30
0.0
 42
0.2215234308486365
  0
VERTEX
  5
248
  8
DRAFT
 10
-964.5226076303421
 20
-23.21238765849919
 30
0.0
  0
VERTEX
  5
249
  8
DRAFT
 10
-964.7667347610011
 20
-23.56049487686597
 30
0.0
 42
-0.2214558605052489
  0
VERTEX
  5
24A
  8
DRAFT
 10
-964.8124471552875
 20
-23.58687008796549
 30
0.0
  0
VERTEX
  5
24B
  8
DRAFT
 10
-964.8573124523926
 20
-23.59080337262403
 30
0.0
 42
0.1622776624723895
  0
VERTEX
  5
24C
  8
DRAFT
 10
-964.8935774970256
 20
-23.6065306285766
 30
0.0
  0
VERTEX
  5
24D
  8
DRAFT
 10
-964.9013331558061
 20
-23.61348453172932
 30
0.0
 42
-2.013858596102161
  0
VERTEX
  5
24E
  8
DRAFT
 10
-964.9104922537628
 20
-23.51395169127394
 30
0.0
  0
VERTEX
  5
24F
  8
DRAFT
 10
-964.9013522553827
 20
-23.51956761395065
 30
0.0
 42
0.1609716664685255
  0
VERTEX
  5
250
  8
DRAFT
 10
-964.8631745427055
 20
-23.52857757293397
 30
0.0
  0
VERTEX
  5
251
  8
DRAFT
 10
-964.8443781842449
 20
-23.52692971962311
 30
0.0
 42
0.2261705714071917
  0
VERTEX
  5
252
  8
DRAFT
 10
-964.798029593023
 20
-23.49962978513583
 30
0.0
  0
VERTEX
  5
253
  8
DRAFT
 10
-964.7238265981842
 20
-23.38967290518293
 30
0.0
 42
0.6310043784640484
  0
VERTEX
  5
254
  8
DRAFT
 10
-964.8383251430956
 20
-23.19522518923216
 30
0.0
  0
SEQEND
  5
255
  8
DRAFT
  0
POLYLINE
  5
256
  8
DRAFT
 66
     1
 10
0.0
 20
0.0
 30
0.0
  0
VERTEX
  5
257
  8
DRAFT
 10
-964.3004121538028
 20
-24.65428036331388
 30
0.0
 42
-0.2214556596406054
  0
VERTEX
  5
258
  8
DRAFT
 10
-964.3996109362481
 20
-24.61821539070235
 30
0.0
  0
VERTEX
  5
259
  8
DRAFT
 10
-964.700440511676
 20
-24.31787612022739
 30
0.0
 42
0.2214558605046869
  0
VERTEX
  5
25A
  8
DRAFT
 10
-964.7500399505819
 20
-24.29984363808888
 30
0.0
  0
VERTEX
  5
25B
  8
DRAFT
 10
-964.7949063223103
 20
-24.30376464567468
 30
0.0
 42
-0.1622776624693034
  0
VERTEX
  5
25C
  8
DRAFT
 10
-964.8333521988146
 20
-24.29457690265092
 30
0.0
  0
VERTEX
  5
25D
  8
DRAFT
 10
-964.8421980253055
 20
-24.28907614217034
 30
0.0
 42
1.989253265099487
  0
VERTEX
  5
25E
  8
DRAFT
 10
-964.833925932424
 20
-24.38868662296423
 30
0.0
  0
VERTEX
  5
25F
  8
DRAFT
 10
-964.8259005823776
 20
-24.38156820217488
 30
0.0
 42
-0.1609716664649443
  0
VERTEX
  5
260
  8
DRAFT
 10
-964.7898687371111
 20
-24.36606261502594
 30
0.0
  0
VERTEX
  5
261
  8
DRAFT
 10
-964.7710719284358
 20
-24.36441990520606
 30
0.0
 42
-0.2261705714157116
  0
VERTEX
  5
262
  8
DRAFT
 10
-964.7206853142715
 20
-24.38325252170735
 30
0.0
  0
VERTEX
  5
263
  8
DRAFT
 10
-964.6286623467021
 20
-24.47848605668971
 30
0.0
 42
-0.6310947064771129
  0
VERTEX
  5
264
  8
DRAFT
 10
-964.7076703747078
 20
-24.68987157364655
 30
0.0
  0
SEQEND
  5
265
  8
DRAFT
  0
POLYLINE
  5
266
  8
DRAFT
 66
     1
 10
0.0
 20
0.0
 30
0.0
  0
VERTEX
  5
267
  8
DRAFT
 10
-963.3086565038194
 20
-24.56760861029723
 30
0.0
 42
-0.2214552436103258
  0
VERTEX
  5
268
  8
DRAFT
 10
-963.407855145938
 20
-24.53154377778353
 30
0.0
  0
VERTEX
  5
269
  8
DRAFT
 10
-963.708696798992
 20
-24.23119340227478
 30
0.0
 42
0.22145586049421
  0
VERTEX
  5
26A
  8
DRAFT
 10
-963.7582962378987
 20
-24.21316092013657
 30
0.0
  0
VERTEX
  5
26B
  8
DRAFT
 10
-963.8031626096271
 20
-24.2170819277225
 30
0.0
 42
-0.1622776624615409
  0
VERTEX
  5
26C
  8
DRAFT
 10
-963.8416084861309
 20
-24.20789418469897
 30
0.0
  0
VERTEX
  5
26D
  8
DRAFT
 10
-963.8504543126227
 20
-24.20239342421863
 30
0.0
 42
1.989253265127144
  0
VERTEX
  5
26E
  8
DRAFT
 10
-963.8421822197405
 20
-24.30200390501191
 30
0.0
  0
VERTEX
  5
26F
  8
DRAFT
 10
-963.8341568696941
 20
-24.29488548422275
 30
0.0
 42
-0.1609716664554954
  0
VERTEX
  5
270
  8
DRAFT
 10
-963.7981250244276
 20
-24.27937989707332
 30
0.0
  0
VERTEX
  5
271
  8
DRAFT
 10
-963.7793282157523
 20
-24.27773718725388
 30
0.0
 42
-0.226170571400185
  0
VERTEX
  5
272
  8
DRAFT
 10
-963.7289416015886
 20
-24.29656980375535
 30
0.0
  0
VERTEX
  5
273
  8
DRAFT
 10
-963.6369079342354
 20
-24.39181441182229
 30
0.0
 42
-0.6310947064870126
  0
VERTEX
  5
274
  8
DRAFT
 10
-963.715915962242
 20
-24.6031999287785
 30
0.0
  0
SEQEND
  5
275
  8
DRAFT
  0
POLYLINE
  5
276
  8
DRAFT
 66
     1
 10
0.0
 20
0.0
 30
0.0
  0
VERTEX
  5
277
  8
DRAFT
 10
-964.9643555600234
 20
-24.71230386831943
 30
0.0
 42
-0.4141732650315159
  0
VERTEX
  5
278
  8
DRAFT
 10
-965.370574859509
 20
-24.37142678673385
 30
0.0
  0
VERTEX
  5
279
  8
DRAFT
 10
-965.4360027759459
 20
-23.62394299732951
 30
0.0
 42
-0.4142489508371949
  0
VERTEX
  5
27A
  8
DRAFT
 10
-965.0950850537373
 20
-23.21766835137552
 30
0.0
  0
SEQEND
  5
27B
  8
DRAFT
  0
LINE
  5
27C
  8
DRAFT
 10
-951.4641800860774
 20
-23.39417373665987
 30
0.0
 11
-951.4487390661972
 21
-23.21768207182112
 31
0.0
  0
POLYLINE
  5
27D
  8
DRAFT
 66
     1
 10
0.0
 20
0.0
 30
0.0
  0
VERTEX
  5
27E
  8
DRAFT
 10
-949.0056541335858
 20
-24.24765228825898
 30
0.0
  0
VERTEX
  5
27F
  8
DRAFT
 10
-948.9808667717751
 20
-24.2498185297021
 30
0.0
 42
0.1624911418059935
  0
VERTEX
  5
280
  8
DRAFT
 10
-948.9051524383418
 20
-24.23216622393175
 30
0.0
 42
0.0901239739959964
  0
VERTEX
  5
281
  8
DRAFT
 10
-948.770520391712
 20
-24.11144364610642
 30
0.0
 42
0.2945408183496305
  0
VERTEX
  5
282
  8
DRAFT
 10
-948.736597212638
 20
-23.72327545305268
 30
0.0
 42
0.0931204833696625
  0
VERTEX
  5
283
  8
DRAFT
 10
-948.8482476541019
 20
-23.58102951216988
 30
0.0
 42
0.1594425821225762
  0
VERTEX
  5
284
  8
DRAFT
 10
-948.919752222491
 20
-23.55051130636193
 30
0.0
  0
VERTEX
  5
285
  8
DRAFT
 10
-948.944539584263
 20
-23.54834506447543
 30
0.0
  0
SEQEND
  5
286
  8
DRAFT
  0
POLYLINE
  5
287
  8
DRAFT
 66
     1
 10
0.0
 20
0.0
 30
0.0
 70
     1
  0
VERTEX
  5
288
  8
DRAFT
 10
-951.4487390661972
 20
-23.21768207182112
 30
0.0
  0
VERTEX
  5
289
  8
DRAFT
 10
-951.5129263912321
 20
-23.95134655414247
 30
0.0
 42
0.4142135331023366
  0
VERTEX
  5
28A
  8
DRAFT
 10
-951.4845189269905
 20
-23.98520125514656
 30
0.0
  0
VERTEX
  5
28B
  8
DRAFT
 10
-950.9584771441235
 20
-24.03122400069714
 30
0.0
 42
0.4142135777893228
  0
VERTEX
  5
28C
  8
DRAFT
 10
-950.9246224398636
 20
-24.0028165350902
 30
0.0
  0
VERTEX
  5
28D
  8
DRAFT
 10
-950.8604350797808
 20
-23.26915205259201
 30
0.0
 42
1.000000000017779
  0
VERTEX
  5
28E
  8
DRAFT
 10
-950.9002828677045
 20
-23.26566582288226
 30
0.0
  0
VERTEX
  5
28F
  8
DRAFT
 10
-950.9130002978743
 20
-23.41102638001888
 30
0.0
 42
-0.4142135183751616
  0
VERTEX
  5
290
  8
DRAFT
 10
-950.9468550001567
 20
-23.4394338410108
 30
0.0
  0
VERTEX
  5
291
  8
DRAFT
 10
-951.3932012155252
 20
-23.40038358474471
 30
0.0
 42
-0.414213547775897
  0
VERTEX
  5
292
  8
DRAFT
 10
-951.4216086813286
 20
-23.36652888360429
 30
0.0
  0
VERTEX
  5
293
  8
DRAFT
 10
-951.4088912782732
 20
-23.22116830153113
 30
0.0
 42
1.000000000020328
  0
SEQEND
  5
294
  8
DRAFT
  0
POLYLINE
  5
295
  8
DRAFT
 66
     1
 10
0.0
 20
0.0
 30
0.0
 70
     1
  0
VERTEX
  5
296
  8
DRAFT
 10
-950.3444591806
 20
-24.06158653805593
 30
0.0
 42
0.4142135623778974
  0
VERTEX
  5
297
  8
DRAFT
 10
-950.31605313175
 20
-24.09544242954749
 30
0.0
  0
VERTEX
  5
298
  8
DRAFT
 10
-949.8986045372229
 20
-24.13198207381432
 30
0.0
 42
0.4142135623738119
  0
VERTEX
  5
299
  8
DRAFT
 10
-949.8647486457296
 20
-24.10357602496432
 30
0.0
  0
VERTEX
  5
29A
  8
DRAFT
 10
-949.8172971863575
 20
-23.56146497212495
 30
0.0
 42
0.4142135623748708
  0
VERTEX
  5
29B
  8
DRAFT
 10
-949.8457032352073
 20
-23.52760908063277
 30
0.0
  0
VERTEX
  5
29C
  8
DRAFT
 10
-950.263151829735
 20
-23.49106943636653
 30
0.0
 42
0.4142135623515276
  0
VERTEX
  5
29D
  8
DRAFT
 10
-950.2970077212267
 20
-23.51947548521682
 30
0.0
  0
SEQEND
  5
29E
  8
DRAFT
  0
POLYLINE
  5
29F
  8
DRAFT
 66
     1
 10
0.0
 20
0.0
 30
0.0
  0
VERTEX
  5
2A0
  8
DRAFT
 10
-949.7979432504206
 20
-23.04334694883246
 30
0.0
 42
-0.173823154940329
  0
VERTEX
  5
2A1
  8
DRAFT
 10
-949.7290376568736
 20
-23.09202002363091
 30
0.0
  0
VERTEX
  5
2A2
  8
DRAFT
 10
-949.4614611008595
 20
-23.47356309643192
 30
0.0
 42
0.2214558604966957
  0
VERTEX
  5
2A3
  8
DRAFT
 10
-949.415748706573
 20
-23.49993830753142
 30
0.0
  0
VERTEX
  5
2A4
  8
DRAFT
 10
-949.3708834094679
 20
-23.50387159219019
 30
0.0
 42
-0.1622776624580614
  0
VERTEX
  5
2A5
  8
DRAFT
 10
-949.334618364835
 20
-23.51959884814306
 30
0.0
  0
VERTEX
  5
2A6
  8
DRAFT
 10
-949.3268627060543
 20
-23.52655275129545
 30
0.0
 42
2.013858596118056
  0
VERTEX
  5
2A7
  8
DRAFT
 10
-949.3177036080974
 20
-23.42701991083959
 30
0.0
  0
VERTEX
  5
2A8
  8
DRAFT
 10
-949.3268436064776
 20
-23.43263583351683
 30
0.0
 42
-0.160971666471657
  0
VERTEX
  5
2A9
  8
DRAFT
 10
-949.3650213191555
 20
-23.44164579250044
 30
0.0
  0
VERTEX
  5
2AA
  8
DRAFT
 10
-949.3838176776156
 20
-23.43999793918933
 30
0.0
 42
-0.2261705714046608
  0
VERTEX
  5
2AB
  8
DRAFT
 10
-949.4301662688368
 20
-23.41269800470175
 30
0.0
  0
VERTEX
  5
2AC
  8
DRAFT
 10
-949.5041926866865
 20
-23.30300278339145
 30
0.0
 42
-0.6310043784617101
  0
VERTEX
  5
2AD
  8
DRAFT
 10
-949.3896941417755
 20
-23.10855506744052
 30
0.0
  0
SEQEND
  5
2AE
  8
DRAFT
  0
POLYLINE
  5
2AF
  8
DRAFT
 66
     1
 10
0.0
 20
0.0
 30
0.0
  0
VERTEX
  5
2B0
  8
DRAFT
 10
-948.8053231906382
 20
-23.15963442782608
 30
0.0
 42
-0.2215234308485969
  0
VERTEX
  5
2B1
  8
DRAFT
 10
-948.7138663194937
 20
-23.21238765849912
 30
0.0
  0
VERTEX
  5
2B2
  8
DRAFT
 10
-948.4697391888349
 20
-23.56049487686595
 30
0.0
 42
0.2214558605123912
  0
VERTEX
  5
2B3
  8
DRAFT
 10
-948.4240267945485
 20
-23.58687008796555
 30
0.0
  0
VERTEX
  5
2B4
  8
DRAFT
 10
-948.3791614974433
 20
-23.59080337262403
 30
0.0
 42
-0.1622776624714884
  0
VERTEX
  5
2B5
  8
DRAFT
 10
-948.3428964528105
 20
-23.60653062857662
 30
0.0
  0
VERTEX
  5
2B6
  8
DRAFT
 10
-948.3351407940298
 20
-23.6134845317293
 30
0.0
 42
2.013858596097279
  0
VERTEX
  5
2B7
  8
DRAFT
 10
-948.3259816960733
 20
-23.51395169127388
 30
0.0
  0
VERTEX
  5
2B8
  8
DRAFT
 10
-948.3351216944533
 20
-23.51956761395065
 30
0.0
 42
-0.1609716664684922
  0
VERTEX
  5
2B9
  8
DRAFT
 10
-948.3732994071305
 20
-23.52857757293389
 30
0.0
  0
VERTEX
  5
2BA
  8
DRAFT
 10
-948.3920957655911
 20
-23.52692971962301
 30
0.0
 42
-0.2261705714095951
  0
VERTEX
  5
2BB
  8
DRAFT
 10
-948.438444356813
 20
-23.49962978513582
 30
0.0
  0
VERTEX
  5
2BC
  8
DRAFT
 10
-948.5126473516517
 20
-23.38967290518293
 30
0.0
 42
-0.6310043784583259
  0
VERTEX
  5
2BD
  8
DRAFT
 10
-948.3981488067403
 20
-23.19522518923223
 30
0.0
  0
SEQEND
  5
2BE
  8
DRAFT
  0
POLYLINE
  5
2BF
  8
DRAFT
 66
     1
 10
0.0
 20
0.0
 30
0.0
  0
VERTEX
  5
2C0
  8
DRAFT
 10
-948.9360617960332
 20
-24.65428036331388
 30
0.0
 42
0.221455659640822
  0
VERTEX
  5
2C1
  8
DRAFT
 10
-948.8368630135878
 20
-24.61821539070229
 30
0.0
  0
VERTEX
  5
2C2
  8
DRAFT
 10
-948.53603343816
 20
-24.31787612022739
 30
0.0
 42
-0.2214558604997411
  0
VERTEX
  5
2C3
  8
DRAFT
 10
-948.486433999254
 20
-24.29984363808878
 30
0.0
  0
VERTEX
  5
2C4
  8
DRAFT
 10
-948.4415676275256
 20
-24.30376464567468
 30
0.0
 42
0.1622776624703336
  0
VERTEX
  5
2C5
  8
DRAFT
 10
-948.4031217510213
 20
-24.29457690265094
 30
0.0
  0
VERTEX
  5
2C6
  8
DRAFT
 10
-948.3942759245305
 20
-24.28907614217034
 30
0.0
 42
-1.989253265107753
  0
VERTEX
  5
2C7
  8
DRAFT
 10
-948.402548017412
 20
-24.38868662296418
 30
0.0
  0
VERTEX
  5
2C8
  8
DRAFT
 10
-948.4105733674584
 20
-24.38156820217488
 30
0.0
 42
0.1609716664691562
  0
VERTEX
  5
2C9
  8
DRAFT
 10
-948.4466052127249
 20
-24.36606261502584
 30
0.0
  0
VERTEX
  5
2CA
  8
DRAFT
 10
-948.4654020214001
 20
-24.36441990520606
 30
0.0
 42
0.2261705714153253
  0
VERTEX
  5
2CB
  8
DRAFT
 10
-948.5157886355644
 20
-24.38325252170745
 30
0.0
  0
VERTEX
  5
2CC
  8
DRAFT
 10
-948.6078116031339
 20
-24.47848605668971
 30
0.0
 42
0.6310947064820699
  0
VERTEX
  5
2CD
  8
DRAFT
 10
-948.5288035751281
 20
-24.68987157364644
 30
0.0
  0
SEQEND
  5
2CE
  8
DRAFT
  0
POLYLINE
  5
2CF
  8
DRAFT
 66
     1
 10
0.0
 20
0.0
 30
0.0
  0
VERTEX
  5
2D0
  8
DRAFT
 10
-949.9278174460165
 20
-24.56760861029723
 30
0.0
 42
0.2214552436092556
  0
VERTEX
  5
2D1
  8
DRAFT
 10
-949.8286188038979
 20
-24.53154377778343
 30
0.0
  0
VERTEX
  5
2D2
  8
DRAFT
 10
-949.5277771508439
 20
-24.23119340227478
 30
0.0
 42
-0.2214558604980559
  0
VERTEX
  5
2D3
  8
DRAFT
 10
-949.4781777119373
 20
-24.2131609201366
 30
0.0
  0
VERTEX
  5
2D4
  8
DRAFT
 10
-949.4333113402089
 20
-24.2170819277225
 30
0.0
 42
0.1622776624603306
  0
VERTEX
  5
2D5
  8
DRAFT
 10
-949.394865463705
 20
-24.20789418469892
 30
0.0
  0
VERTEX
  5
2D6
  8
DRAFT
 10
-949.3860196372133
 20
-24.20239342421863
 30
0.0
 42
-1.989253265106183
  0
VERTEX
  5
2D7
  8
DRAFT
 10
-949.3942917300955
 20
-24.30200390501184
 30
0.0
  0
VERTEX
  5
2D8
  8
DRAFT
 10
-949.4023170801419
 20
-24.29488548422275
 30
0.0
 42
0.1609716664653299
  0
VERTEX
  5
2D9
  8
DRAFT
 10
-949.4383489254084
 20
-24.27937989707335
 30
0.0
  0
VERTEX
  5
2DA
  8
DRAFT
 10
-949.4571457340836
 20
-24.27773718725388
 30
0.0
 42
0.2261705714023261
  0
VERTEX
  5
2DB
  8
DRAFT
 10
-949.5075323482474
 20
-24.29656980375531
 30
0.0
  0
VERTEX
  5
2DC
  8
DRAFT
 10
-949.5995660156005
 20
-24.39181441182229
 30
0.0
 42
0.6310947064815655
  0
VERTEX
  5
2DD
  8
DRAFT
 10
-949.520557987594
 20
-24.60319992877836
 30
0.0
  0
SEQEND
  5
2DE
  8
DRAFT
  0
POLYLINE
  5
2DF
  8
DRAFT
 66
     1
 10
0.0
 20
0.0
 30
0.0
  0
VERTEX
  5
2E0
  8
DRAFT
 10
-948.2721183898126
 20
-24.71230386831943
 30
0.0
 42
0.4141732650308937
  0
VERTEX
  5
2E1
  8
DRAFT
 10
-947.8658990903268
 20
-24.37142678673385
 30
0.0
  0
VERTEX
  5
2E2
  8
DRAFT
 10
-947.8004711738901
 20
-23.62394299732951
 30
0.0
 42
0.4142489508383149
  0
VERTEX
  5
2E3
  8
DRAFT
 10
-948.1413888960986
 20
-23.21766835137573
 30
0.0
  0
SEQEND
  5
2E4
  8
DRAFT
  0
POLYLINE
  5
2E5
  8
DRAFT
 66
     1
 10
0.0
 20
0.0
 30
0.0
  0
VERTEX
  5
2E6
  8
DRAFT
 10
-959.3489083362139
 20
7.746661451626736
 30
0.0
 42
-0.4141732650308467
  0
VERTEX
  5
2E7
  8
DRAFT
 10
-958.9426890367279
 20
7.405784370041176
 30
0.0
  0
VERTEX
  5
2E8
  8
DRAFT
 10
-958.8772611202913
 20
6.658300580636819
 30
0.0
 42
-0.4142489508381196
  0
VERTEX
  5
2E9
  8
DRAFT
 10
-959.2181788424999
 20
6.252025934682848
 30
0.0
  0
SEQEND
  5
2EA
  8
DRAFT
  0
POLYLINE
  5
2EB
  8
DRAFT
 66
     1
 10
0.0
 20
0.0
 30
0.0
  0
VERTEX
  5
2EC
  8
DRAFT
 10
-961.0046073924178
 20
7.60196619360454
 30
0.0
 42
-0.2214552436121702
  0
VERTEX
  5
2ED
  8
DRAFT
 10
-960.9054087502991
 20
7.56590136109085
 30
0.0
  0
VERTEX
  5
2EE
  8
DRAFT
 10
-960.6045670972452
 20
7.265550985582081
 30
0.0
 42
0.2214558604976546
  0
VERTEX
  5
2EF
  8
DRAFT
 10
-960.5549676583386
 20
7.247518503443836
 30
0.0
  0
VERTEX
  5
2F0
  8
DRAFT
 10
-960.5101012866102
 20
7.251439511029801
 30
0.0
 42
-0.162277662461565
  0
VERTEX
  5
2F1
  8
DRAFT
 10
-960.4716554101063
 20
7.242251768006208
 30
0.0
  0
VERTEX
  5
2F2
  8
DRAFT
 10
-960.4628095836146
 20
7.236751007525939
 30
0.0
 42
1.989253265128781
  0
VERTEX
  5
2F3
  8
DRAFT
 10
-960.4710816764966
 20
7.336361488319037
 30
0.0
  0
VERTEX
  5
2F4
  8
DRAFT
 10
-960.4791070265431
 20
7.329243067530058
 30
0.0
 42
-0.1609716664654683
  0
VERTEX
  5
2F5
  8
DRAFT
 10
-960.5151388718097
 20
7.313737480380699
 30
0.0
  0
VERTEX
  5
2F6
  8
DRAFT
 10
-960.5339356804849
 20
7.312094770561188
 30
0.0
 42
-0.2261705714011174
  0
VERTEX
  5
2F7
  8
DRAFT
 10
-960.5843222946487
 20
7.330927387062622
 30
0.0
  0
VERTEX
  5
2F8
  8
DRAFT
 10
-960.6763559620018
 20
7.426171995129593
 30
0.0
 42
-0.631094706480195
  0
VERTEX
  5
2F9
  8
DRAFT
 10
-960.5973479339953
 20
7.637557512085507
 30
0.0
  0
SEQEND
  5
2FA
  8
DRAFT
  0
POLYLINE
  5
2FB
  8
DRAFT
 66
     1
 10
0.0
 20
0.0
 30
0.0
  0
VERTEX
  5
2FC
  8
DRAFT
 10
-960.0128517424345
 20
7.688637946621185
 30
0.0
 42
-0.2214556596401747
  0
VERTEX
  5
2FD
  8
DRAFT
 10
-959.9136529599892
 20
7.652572974009666
 30
0.0
  0
VERTEX
  5
2FE
  8
DRAFT
 10
-959.6128233845612
 20
7.352233703534694
 30
0.0
 42
0.2214558604986739
  0
VERTEX
  5
2FF
  8
DRAFT
 10
-959.5632239456553
 20
7.334201221396163
 30
0.0
  0
VERTEX
  5
300
  8
DRAFT
 10
-959.5183575739269
 20
7.338122228981987
 30
0.0
 42
-0.162277662470329
  0
VERTEX
  5
301
  8
DRAFT
 10
-959.4799116974226
 20
7.328934485958248
 30
0.0
  0
VERTEX
  5
302
  8
DRAFT
 10
-959.4710658709317
 20
7.323433725477642
 30
0.0
 42
1.989253265099339
  0
VERTEX
  5
303
  8
DRAFT
 10
-959.4793379638134
 20
7.423044206271569
 30
0.0
  0
VERTEX
  5
304
  8
DRAFT
 10
-959.4873633138596
 20
7.415925785482187
 30
0.0
 42
-0.160971666467698
  0
VERTEX
  5
305
  8
DRAFT
 10
-959.5233951591262
 20
7.400420198333207
 30
0.0
  0
VERTEX
  5
306
  8
DRAFT
 10
-959.5421919678014
 20
7.39877748851336
 30
0.0
 42
-0.2261705714101012
  0
VERTEX
  5
307
  8
DRAFT
 10
-959.5925785819659
 20
7.417610105014638
 30
0.0
  0
VERTEX
  5
308
  8
DRAFT
 10
-959.6846015495352
 20
7.512843639997016
 30
0.0
 42
-0.6310947064807949
  0
VERTEX
  5
309
  8
DRAFT
 10
-959.6055935215294
 20
7.724229156953631
 30
0.0
  0
SEQEND
  5
30A
  8
DRAFT
  0
POLYLINE
  5
30B
  8
DRAFT
 66
     1
 10
0.0
 20
0.0
 30
0.0
  0
VERTEX
  5
30C
  8
DRAFT
 10
-959.8821131370395
 20
6.193992011133389
 30
0.0
 42
0.2215234308473822
  0
VERTEX
  5
30D
  8
DRAFT
 10
-959.7906562658952
 20
6.246745241806549
 30
0.0
  0
VERTEX
  5
30E
  8
DRAFT
 10
-959.546529135236
 20
6.594852460173188
 30
0.0
 42
-0.2214558605110048
  0
VERTEX
  5
30F
  8
DRAFT
 10
-959.5008167409497
 20
6.621227671272835
 30
0.0
  0
VERTEX
  5
310
  8
DRAFT
 10
-959.4559514438446
 20
6.625160955931335
 30
0.0
 42
0.1622776624707658
  0
VERTEX
  5
311
  8
DRAFT
 10
-959.4196863992117
 20
6.640888211883952
 30
0.0
  0
VERTEX
  5
312
  8
DRAFT
 10
-959.4119307404311
 20
6.647842115036619
 30
0.0
 42
-2.013858596081747
  0
VERTEX
  5
313
  8
DRAFT
 10
-959.4027716424744
 20
6.548309274581361
 30
0.0
  0
VERTEX
  5
314
  8
DRAFT
 10
-959.4119116408546
 20
6.553925197257954
 30
0.0
 42
0.1609716664664716
  0
VERTEX
  5
315
  8
DRAFT
 10
-959.4500893535318
 20
6.562935156241303
 30
0.0
  0
VERTEX
  5
316
  8
DRAFT
 10
-959.4688857119924
 20
6.561287302930339
 30
0.0
 42
0.2261705714106452
  0
VERTEX
  5
317
  8
DRAFT
 10
-959.5152343032142
 20
6.533987368443089
 30
0.0
  0
VERTEX
  5
318
  8
DRAFT
 10
-959.589437298053
 20
6.424030488490232
 30
0.0
 42
0.6310043784615356
  0
VERTEX
  5
319
  8
DRAFT
 10
-959.4749387531415
 20
6.229582772539212
 30
0.0
  0
SEQEND
  5
31A
  8
DRAFT
  0
POLYLINE
  5
31B
  8
DRAFT
 66
     1
 10
0.0
 20
0.0
 30
0.0
  0
VERTEX
  5
31C
  8
DRAFT
 10
-960.8747331968219
 20
6.077704532139762
 30
0.0
 42
0.1738231549399092
  0
VERTEX
  5
31D
  8
DRAFT
 10
-960.8058276032748
 20
6.126377606938204
 30
0.0
  0
VERTEX
  5
31E
  8
DRAFT
 10
-960.5382510472608
 20
6.507920679739229
 30
0.0
 42
-0.2214558604913451
  0
VERTEX
  5
31F
  8
DRAFT
 10
-960.4925386529744
 20
6.534295890838911
 30
0.0
  0
VERTEX
  5
320
  8
DRAFT
 10
-960.4476733558691
 20
6.538229175497506
 30
0.0
 42
0.1622776624611521
  0
VERTEX
  5
321
  8
DRAFT
 10
-960.4114083112363
 20
6.553956431450395
 30
0.0
  0
VERTEX
  5
322
  8
DRAFT
 10
-960.4036526524557
 20
6.560910334602787
 30
0.0
 42
-2.013858596105505
  0
VERTEX
  5
323
  8
DRAFT
 10
-960.3944935544988
 20
6.461377494146931
 30
0.0
  0
VERTEX
  5
324
  8
DRAFT
 10
-960.4036335528789
 20
6.466993416824138
 30
0.0
 42
0.1609716664714841
  0
VERTEX
  5
325
  8
DRAFT
 10
-960.4418112655568
 20
6.476003375807662
 30
0.0
  0
VERTEX
  5
326
  8
DRAFT
 10
-960.4606076240169
 20
6.474355522496688
 30
0.0
 42
0.2261705714051181
  0
VERTEX
  5
327
  8
DRAFT
 10
-960.5069562152382
 20
6.447055588009045
 30
0.0
  0
VERTEX
  5
328
  8
DRAFT
 10
-960.5809826330878
 20
6.337360366698753
 30
0.0
 42
0.6310043784611982
  0
VERTEX
  5
329
  8
DRAFT
 10
-960.4664840881768
 20
6.142912650747955
 30
0.0
  0
SEQEND
  5
32A
  8
DRAFT
  0
POLYLINE
  5
32B
  8
DRAFT
 66
     1
 10
0.0
 20
0.0
 30
0.0
 70
     1
  0
VERTEX
  5
32C
  8
DRAFT
 10
-961.4212491270013
 20
7.095944121363232
 30
0.0
 42
-0.41421356237003
  0
VERTEX
  5
32D
  8
DRAFT
 10
-961.3928430781514
 20
7.129800012855145
 30
0.0
  0
VERTEX
  5
32E
  8
DRAFT
 10
-960.9753944836242
 20
7.166339657121625
 30
0.0
 42
-0.4142135623753679
  0
VERTEX
  5
32F
  8
DRAFT
 10
-960.941538592131
 20
7.137933608271619
 30
0.0
  0
VERTEX
  5
330
  8
DRAFT
 10
-960.8940871327587
 20
6.595822555432261
 30
0.0
 42
-0.4142135623705569
  0
VERTEX
  5
331
  8
DRAFT
 10
-960.9224931816087
 20
6.561966663940026
 30
0.0
  0
VERTEX
  5
332
  8
DRAFT
 10
-961.3399417761362
 20
6.5254270196739
 30
0.0
 42
-0.4142135623551402
  0
VERTEX
  5
333
  8
DRAFT
 10
-961.3737976676282
 20
6.553833068524118
 30
0.0
  0
SEQEND
  5
334
  8
DRAFT
  0
POLYLINE
  5
335
  8
DRAFT
 66
     1
 10
0.0
 20
0.0
 30
0.0
 70
     1
  0
VERTEX
  5
336
  8
DRAFT
 10
-962.5255290125984
 20
6.252039655128428
 30
0.0
  0
VERTEX
  5
337
  8
DRAFT
 10
-962.5897163376334
 20
6.985704137449773
 30
0.0
 42
-0.414213533105859
  0
VERTEX
  5
338
  8
DRAFT
 10
-962.5613088733917
 20
7.019558838453909
 30
0.0
  0
VERTEX
  5
339
  8
DRAFT
 10
-962.0352670905248
 20
7.06558158400436
 30
0.0
 42
-0.4142135777907638
  0
VERTEX
  5
33A
  8
DRAFT
 10
-962.0014123862649
 20
7.03717411839751
 30
0.0
  0
VERTEX
  5
33B
  8
DRAFT
 10
-961.9372250261821
 20
6.303509635899317
 30
0.0
 42
-1.000000000013782
  0
VERTEX
  5
33C
  8
DRAFT
 10
-961.9770728141058
 20
6.300023406189568
 30
0.0
  0
VERTEX
  5
33D
  8
DRAFT
 10
-961.9897902442754
 20
6.445383963326196
 30
0.0
 42
0.4142135183794136
  0
VERTEX
  5
33E
  8
DRAFT
 10
-962.023644946558
 20
6.473791424318053
 30
0.0
  0
VERTEX
  5
33F
  8
DRAFT
 10
-962.4699911619265
 20
6.434741168052014
 30
0.0
 42
0.4142135477811342
  0
VERTEX
  5
340
  8
DRAFT
 10
-962.4983986277299
 20
6.400886466911588
 30
0.0
  0
VERTEX
  5
341
  8
DRAFT
 10
-962.4856812246745
 20
6.255525884838434
 30
0.0
 42
-1.000000000000385
  0
SEQEND
  5
342
  8
DRAFT
  0
POLYLINE
  5
343
  8
DRAFT
 66
     1
 10
0.0
 20
0.0
 30
0.0
  0
VERTEX
  5
344
  8
DRAFT
 10
-960.0824440799871
 20
7.282009871566288
 30
0.0
  0
VERTEX
  5
345
  8
DRAFT
 10
-960.0576567181764
 20
7.284176113009401
 30
0.0
 42
-0.162491141806435
  0
VERTEX
  5
346
  8
DRAFT
 10
-959.981942384743
 20
7.266523807239131
 30
0.0
 42
-0.0901239739957558
  0
VERTEX
  5
347
  8
DRAFT
 10
-959.8473103381133
 20
7.145801229413697
 30
0.0
 42
-0.2945408183509176
  0
VERTEX
  5
348
  8
DRAFT
 10
-959.8133871590394
 20
6.757633036359998
 30
0.0
 42
-0.0931204833697259
  0
VERTEX
  5
349
  8
DRAFT
 10
-959.9250376005033
 20
6.615387095477238
 30
0.0
 42
-0.1594425821235763
  0
VERTEX
  5
34A
  8
DRAFT
 10
-959.9965421688922
 20
6.584868889669189
 30
0.0
  0
VERTEX
  5
34B
  8
DRAFT
 10
-960.0213295306643
 20
6.582702647782739
 30
0.0
  0
SEQEND
  5
34C
  8
DRAFT
  0
LINE
  5
34D
  8
DRAFT
 10
-962.5409700324786
 20
6.428531319967178
 30
0.0
 11
-962.5255290125984
 21
6.252039655128428
 31
0.0
  0
POLYLINE
  5
34E
  8
DRAFT
 66
     1
 10
0.0
 20
0.0
 30
0.0
 70
     1
  0
VERTEX
  5
34F
  8
DRAFT
 10
-954.4355717473702
 20
7.794555076192403
 30
0.0
 42
0.0436214061428551
  0
VERTEX
  5
350
  8
DRAFT
 10
-958.800902202416
 20
7.794555076192403
 30
0.0
  0
VERTEX
  5
351
  8
DRAFT
 10
-965.5123616937966
 20
7.207998778694581
 30
0.0
 42
-0.0436214061426253
  0
VERTEX
  5
352
  8
DRAFT
 10
-969.8776921488419
 20
7.207998778694584
 30
0.0
  0
VERTEX
  5
353
  8
DRAFT
 10
-974.3854464502209
 20
7.601959537371806
 30
0.0
 42
0.2214552436118044
  0
VERTEX
  5
354
  8
DRAFT
 10
-974.4846450923392
 20
7.565894704858034
 30
0.0
  0
VERTEX
  5
355
  8
DRAFT
 10
-974.7854867453934
 20
7.265544329349487
 30
0.0
 42
-0.2214558604912904
  0
VERTEX
  5
356
  8
DRAFT
 10
-974.8350861842997
 20
7.247511847210754
 30
0.0
  0
VERTEX
  5
357
  8
DRAFT
 10
-974.8799525560281
 20
7.251432854796982
 30
0.0
 42
0.1622776624674645
  0
VERTEX
  5
358
  8
DRAFT
 10
-974.918398432532
 20
7.242245111773247
 30
0.0
  0
VERTEX
  5
359
  8
DRAFT
 10
-974.9272442590234
 20
7.236744351292927
 30
0.0
 42
-1.9892532650755
  0
VERTEX
  5
35A
  8
DRAFT
 10
-974.9189721661422
 20
7.33635483208623
 30
0.0
  0
VERTEX
  5
35B
  8
DRAFT
 10
-974.9109468160954
 20
7.329236411297092
 30
0.0
 42
0.1609716664729502
  0
VERTEX
  5
35C
  8
DRAFT
 10
-974.8749149708286
 20
7.313730824147703
 30
0.0
  0
VERTEX
  5
35D
  8
DRAFT
 10
-974.8561181621536
 20
7.312088114328397
 30
0.0
 42
0.2261705714064765
  0
VERTEX
  5
35E
  8
DRAFT
 10
-974.8057315479895
 20
7.330920730829462
 30
0.0
  0
VERTEX
  5
35F
  8
DRAFT
 10
-974.713697880637
 20
7.426165338896938
 30
0.0
 42
0.6310947064821542
  0
VERTEX
  5
360
  8
DRAFT
 10
-974.7927059086429
 20
7.6375508558528
 30
0.0
  0
VERTEX
  5
361
  8
DRAFT
 10
-975.377202100204
 20
7.688631290388629
 30
0.0
 42
0.2214556596472143
  0
VERTEX
  5
362
  8
DRAFT
 10
-975.4764008826495
 20
7.65256631777668
 30
0.0
  0
VERTEX
  5
363
  8
DRAFT
 10
-975.7772304580772
 20
7.352227047301873
 30
0.0
 42
-0.2214558605048488
  0
VERTEX
  5
364
  8
DRAFT
 10
-975.8268298969832
 20
7.334194565163206
 30
0.0
  0
VERTEX
  5
365
  8
DRAFT
 10
-975.8716962687116
 20
7.338115572749219
 30
0.0
 42
0.1622776624732996
  0
VERTEX
  5
366
  8
DRAFT
 10
-975.9101421452159
 20
7.328927829725663
 30
0.0
  0
VERTEX
  5
367
  8
DRAFT
 10
-975.9189879717069
 20
7.323427069244843
 30
0.0
 42
-1.989253265150236
  0
VERTEX
  5
368
  8
DRAFT
 10
-975.9107158788256
 20
7.423037550038316
 30
0.0
  0
VERTEX
  5
369
  8
DRAFT
 10
-975.9026905287792
 20
7.415919129249304
 30
0.0
 42
0.1609716664765727
  0
VERTEX
  5
36A
  8
DRAFT
 10
-975.8666586835121
 20
7.400413542100186
 30
0.0
  0
VERTEX
  5
36B
  8
DRAFT
 10
-975.8478618748371
 20
7.398770832280377
 30
0.0
 42
0.2261705714010342
  0
VERTEX
  5
36C
  8
DRAFT
 10
-975.7974752606726
 20
7.417603448781673
 30
0.0
  0
VERTEX
  5
36D
  8
DRAFT
 10
-975.7054522931033
 20
7.512836983764158
 30
0.0
 42
0.6310947064854944
  0
VERTEX
  5
36E
  8
DRAFT
 10
-975.7844603211091
 20
7.724222500720023
 30
0.0
  0
VERTEX
  5
36F
  8
DRAFT
 10
-976.0411455064246
 20
7.746654795393818
 30
0.0
 42
0.4141732650317405
  0
VERTEX
  5
370
  8
DRAFT
 10
-976.4473648059102
 20
7.405777713808229
 30
0.0
  0
VERTEX
  5
371
  8
DRAFT
 10
-976.5127927223474
 20
6.658293924403901
 30
0.0
 42
0.4142489508367265
  0
VERTEX
  5
372
  8
DRAFT
 10
-976.1718750001384
 20
6.252019278449615
 30
0.0
  0
VERTEX
  5
373
  8
DRAFT
 10
-975.9151150894966
 20
6.229576116306641
 30
0.0
 42
0.631004378469651
  0
VERTEX
  5
374
  8
DRAFT
 10
-975.8006165445856
 20
6.424023832257424
 30
0.0
  0
VERTEX
  5
375
  8
DRAFT
 10
-975.8748195394245
 20
6.533980712210043
 30
0.0
 42
0.2261705714096013
  0
VERTEX
  5
376
  8
DRAFT
 10
-975.9211681306464
 20
6.561280646697531
 30
0.0
  0
VERTEX
  5
377
  8
DRAFT
 10
-975.9399644891071
 20
6.562928500008095
 30
0.0
 42
0.1609716664801978
  0
VERTEX
  5
378
  8
DRAFT
 10
-975.978142201784
 20
6.553918541024995
 30
0.0
  0
VERTEX
  5
379
  8
DRAFT
 10
-975.987282200164
 20
6.548302618347918
 30
0.0
 42
-1.998067170493692
  0
VERTEX
  5
37A
  8
DRAFT
 10
-975.9781231022073
 20
6.647835458803692
 30
0.0
  0
VERTEX
  5
37B
  8
DRAFT
 10
-975.9703674434269
 20
6.640881555651267
 30
0.0
 42
0.1622776624620151
  0
VERTEX
  5
37C
  8
DRAFT
 10
-975.9341023987939
 20
6.625154299698369
 30
0.0
  0
VERTEX
  5
37D
  8
DRAFT
 10
-975.889237101689
 20
6.621221015039795
 30
0.0
 42
-0.2214558605001747
  0
VERTEX
  5
37E
  8
DRAFT
 10
-975.8435247074023
 20
6.59484580394035
 30
0.0
  0
VERTEX
  5
37F
  8
DRAFT
 10
-975.5993975767431
 20
6.246738585574001
 30
0.0
 42
0.2215234308543922
  0
VERTEX
  5
380
  8
DRAFT
 10
-975.507940705599
 20
6.193985354900347
 30
0.0
  0
VERTEX
  5
381
  8
DRAFT
 10
-974.923569754462
 20
6.142905994514825
 30
0.0
 42
0.631004378458502
  0
VERTEX
  5
382
  8
DRAFT
 10
-974.8090712095513
 20
6.337353710465654
 30
0.0
  0
VERTEX
  5
383
  8
DRAFT
 10
-974.8830976274006
 20
6.447048931776084
 30
0.0
 42
0.2261705714032496
  0
VERTEX
  5
384
  8
DRAFT
 10
-974.9294462186218
 20
6.474348866263584
 30
0.0
  0
VERTEX
  5
385
  8
DRAFT
 10
-974.9482425770824
 20
6.475996719574483
 30
0.0
 42
0.1609716664782636
  0
VERTEX
  5
386
  8
DRAFT
 10
-974.9864202897601
 20
6.466986760591184
 30
0.0
  0
VERTEX
  5
387
  8
DRAFT
 10
-974.9955602881398
 20
6.461370837913933
 30
0.0
 42
-1.998067170514883
  0
VERTEX
  5
388
  8
DRAFT
 10
-974.9864011901827
 20
6.560903678369906
 30
0.0
  0
VERTEX
  5
389
  8
DRAFT
 10
-974.9786455314023
 20
6.553949775217013
 30
0.0
 42
0.1622776624652684
  0
VERTEX
  5
38A
  8
DRAFT
 10
-974.9423804867696
 20
6.538222519264538
 30
0.0
  0
VERTEX
  5
38B
  8
DRAFT
 10
-974.8975151896645
 20
6.534289234605823
 30
0.0
 42
-0.2214558604844782
  0
VERTEX
  5
38C
  8
DRAFT
 10
-974.8518027953779
 20
6.5079140235063
 30
0.0
  0
VERTEX
  5
38D
  8
DRAFT
 10
-974.5842262393636
 20
6.126370950705407
 30
0.0
 42
0.173823154935577
  0
VERTEX
  5
38E
  8
DRAFT
 10
-974.5153206458172
 20
6.077697875906859
 30
0.0
 42
-0.336951338847171
  0
VERTEX
  5
38F
  8
DRAFT
 10
-973.2334218945199
 20
4.391465026864068
 30
0.0
  0
VERTEX
  5
390
  8
DRAFT
 10
-973.2334218945201
 20
-0.0449788145813985
 30
0.0
 42
0.3889014466558142
  0
VERTEX
  5
391
  8
DRAFT
 10
-971.635806853794
 20
-1.788331568382838
 30
0.0
  0
VERTEX
  5
392
  8
DRAFT
 10
-969.8777566244602
 20
-1.942001221305843
 30
0.0
 42
0.0436214070618396
  0
VERTEX
  5
393
  8
DRAFT
 10
-965.5122972181786
 20
-1.942001221305844
 30
0.0
  0
VERTEX
  5
394
  8
DRAFT
 10
-963.7542469888446
 20
-1.788331568383377
 30
0.0
 42
0.3889014466553954
  0
VERTEX
  5
395
  8
DRAFT
 10
-962.1566319481185
 20
-0.0449788145813986
 30
0.0
  0
VERTEX
  5
396
  8
DRAFT
 10
-962.1566319481186
 20
4.391465026864068
 30
0.0
 42
-0.3889014466558163
  0
VERTEX
  5
397
  8
DRAFT
 10
-960.5590169073926
 20
6.134817780665911
 30
0.0
  0
VERTEX
  5
398
  8
DRAFT
 10
-958.8009666780589
 20
6.288487433588505
 30
0.0
 42
-0.043621407061898
  0
VERTEX
  5
399
  8
DRAFT
 10
-954.435507271777
 20
6.288487433588504
 30
0.0
  0
VERTEX
  5
39A
  8
DRAFT
 10
-952.677457042443
 20
6.134817780665919
 30
0.0
 42
-0.3889014466555147
  0
VERTEX
  5
39B
  8
DRAFT
 10
-951.0798420017173
 20
4.391465026864068
 30
0.0
  0
VERTEX
  5
39C
  8
DRAFT
 10
-951.0798420017171
 20
-0.0449788145813983
 30
0.0
 42
0.3889014466556475
  0
VERTEX
  5
39D
  8
DRAFT
 10
-949.4822269609912
 20
-1.788331568383074
 30
0.0
  0
VERTEX
  5
39E
  8
DRAFT
 10
-947.7241767316574
 20
-1.942001221305886
 30
0.0
 42
0.0436214070617849
  0
VERTEX
  5
39F
  8
DRAFT
 10
-943.3587173253753
 20
-1.942001221305887
 30
0.0
  0
VERTEX
  5
3A0
  8
DRAFT
 10
-941.6006670960411
 20
-1.788331568383018
 30
0.0
 42
0.3889014466552452
  0
VERTEX
  5
3A1
  8
DRAFT
 10
-940.003052055315
 20
-0.0449788145813981
 30
0.0
  0
VERTEX
  5
3A2
  8
DRAFT
 10
-940.0030520553156
 20
4.391465026864068
 30
0.0
 42
-0.3369513388574844
  0
VERTEX
  5
3A3
  8
DRAFT
 10
-938.7211533040106
 20
6.077697875875538
 30
0.0
 42
0.173823154748483
  0
VERTEX
  5
3A4
  8
DRAFT
 10
-938.6522477104726
 20
6.126370950705389
 30
0.0
  0
VERTEX
  5
3A5
  8
DRAFT
 10
-938.3846711544581
 20
6.507914023506336
 30
0.0
 42
-0.2214558604899403
  0
VERTEX
  5
3A6
  8
DRAFT
 10
-938.3389587601717
 20
6.534289234605779
 30
0.0
  0
VERTEX
  5
3A7
  8
DRAFT
 10
-938.2940934630666
 20
6.538222519264361
 30
0.0
 42
0.1622776624628408
  0
VERTEX
  5
3A8
  8
DRAFT
 10
-938.2578284184336
 20
6.553949775217211
 30
0.0
  0
VERTEX
  5
3A9
  8
DRAFT
 10
-938.2500727596531
 20
6.560903678369442
 30
0.0
 42
-1.989253265185443
  0
VERTEX
  5
3AA
  8
DRAFT
 10
-938.2409136616963
 20
6.461370837914025
 30
0.0
  0
VERTEX
  5
3AB
  8
DRAFT
 10
-938.2500536600764
 20
6.466986760591022
 30
0.0
 42
0.160971666472059
  0
VERTEX
  5
3AC
  8
DRAFT
 10
-938.288231372754
 20
6.475996719574553
 30
0.0
  0
VERTEX
  5
3AD
  8
DRAFT
 10
-938.3070277312145
 20
6.474348866263697
 30
0.0
 42
0.2261705714022135
  0
VERTEX
  5
3AE
  8
DRAFT
 10
-938.3533763224362
 20
6.447048931776163
 30
0.0
  0
VERTEX
  5
3AF
  8
DRAFT
 10
-938.4274027402844
 20
6.337353710465472
 30
0.0
 42
0.6310043784697651
  0
VERTEX
  5
3B0
  8
DRAFT
 10
-938.3129041953742
 20
6.142905994515085
 30
0.0
  0
VERTEX
  5
3B1
  8
DRAFT
 10
-937.7285332442369
 20
6.193985354900448
 30
0.0
 42
0.2215234308501934
  0
VERTEX
  5
3B2
  8
DRAFT
 10
-937.6370763730928
 20
6.246738585573846
 30
0.0
  0
VERTEX
  5
3B3
  8
DRAFT
 10
-937.3929492424336
 20
6.594845803940418
 30
0.0
 42
-0.2214558604865534
  0
VERTEX
  5
3B4
  8
DRAFT
 10
-937.3472368481472
 20
6.621221015039793
 30
0.0
  0
VERTEX
  5
3B5
  8
DRAFT
 10
-937.3023715510423
 20
6.625154299698229
 30
0.0
 42
0.162277662471751
  0
VERTEX
  5
3B6
  8
DRAFT
 10
-937.2661065064093
 20
6.640881555651127
 30
0.0
  0
VERTEX
  5
3B7
  8
DRAFT
 10
-937.2583508476288
 20
6.647835458804096
 30
0.0
 42
-1.989253265083363
  0
VERTEX
  5
3B8
  8
DRAFT
 10
-937.2491917496721
 20
6.54830261834806
 30
0.0
  0
VERTEX
  5
3B9
  8
DRAFT
 10
-937.258331748052
 20
6.553918541024935
 30
0.0
 42
0.1609716664689606
  0
VERTEX
  5
3BA
  8
DRAFT
 10
-937.2965094607292
 20
6.562928500008385
 30
0.0
  0
VERTEX
  5
3BB
  8
DRAFT
 10
-937.3153058191898
 20
6.561280646697242
 30
0.0
 42
0.2261705713993019
  0
VERTEX
  5
3BC
  8
DRAFT
 10
-937.3616544104113
 20
6.533980712209989
 30
0.0
  0
VERTEX
  5
3BD
  8
DRAFT
 10
-937.4358574052504
 20
6.424023832257072
 30
0.0
 42
0.6310043784650394
  0
VERTEX
  5
3BE
  8
DRAFT
 10
-937.3213588603393
 20
6.229576116306528
 30
0.0
  0
VERTEX
  5
3BF
  8
DRAFT
 10
-937.0645989496976
 20
6.252019278450032
 30
0.0
 42
0.4142489508339776
  0
VERTEX
  5
3C0
  8
DRAFT
 10
-936.7236812274889
 20
6.658293924403908
 30
0.0
  0
VERTEX
  5
3C1
  8
DRAFT
 10
-936.7891091439261
 20
7.405777713808213
 30
0.0
 42
0.4141732650308206
  0
VERTEX
  5
3C2
  8
DRAFT
 10
-937.1953284434112
 20
7.746654795394018
 30
0.0
  0
VERTEX
  5
3C3
  8
DRAFT
 10
-937.4520136287266
 20
7.724222500720657
 30
0.0
 42
0.6310947064817409
  0
VERTEX
  5
3C4
  8
DRAFT
 10
-937.5310216567328
 20
7.512836983764009
 30
0.0
  0
VERTEX
  5
3C5
  8
DRAFT
 10
-937.4389986891632
 20
7.417603448781789
 30
0.0
 42
0.2261705714143356
  0
VERTEX
  5
3C6
  8
DRAFT
 10
-937.3886120749991
 20
7.398770832280372
 30
0.0
  0
VERTEX
  5
3C7
  8
DRAFT
 10
-937.3698152663242
 20
7.400413542100381
 30
0.0
 42
0.160971666459444
  0
VERTEX
  5
3C8
  8
DRAFT
 10
-937.3337834210571
 20
7.415919129249301
 30
0.0
  0
VERTEX
  5
3C9
  8
DRAFT
 10
-937.3257580710106
 20
7.423037550038657
 30
0.0
 42
-1.998067170461114
  0
VERTEX
  5
3CA
  8
DRAFT
 10
-937.3174859781292
 20
7.323427069244878
 30
0.0
  0
VERTEX
  5
3CB
  8
DRAFT
 10
-937.3263318046205
 20
7.328927829725487
 30
0.0
 42
0.1622776624761528
  0
VERTEX
  5
3CC
  8
DRAFT
 10
-937.3647776811243
 20
7.338115572749121
 30
0.0
  0
VERTEX
  5
3CD
  8
DRAFT
 10
-937.4096440528527
 20
7.334194565163322
 30
0.0
 42
-0.2214558604914979
  0
VERTEX
  5
3CE
  8
DRAFT
 10
-937.4592434917591
 20
7.352227047301639
 30
0.0
  0
VERTEX
  5
3CF
  8
DRAFT
 10
-937.7600730671868
 20
7.652566317776643
 30
0.0
 42
0.2214556596379537
  0
VERTEX
  5
3D0
  8
DRAFT
 10
-937.8592718496319
 20
7.688631290388442
 30
0.0
  0
VERTEX
  5
3D1
  8
DRAFT
 10
-938.4437680411926
 20
7.63755085585307
 30
0.0
 42
0.6310947064770696
  0
VERTEX
  5
3D2
  8
DRAFT
 10
-938.522776069199
 20
7.42616533889682
 30
0.0
  0
VERTEX
  5
3D3
  8
DRAFT
 10
-938.4307424018468
 20
7.330920730829403
 30
0.0
 42
0.2261705714160891
  0
VERTEX
  5
3D4
  8
DRAFT
 10
-938.3803557876826
 20
7.312088114328316
 30
0.0
  0
VERTEX
  5
3D5
  8
DRAFT
 10
-938.3615589790072
 20
7.313730824147652
 30
0.0
 42
0.1609716664775919
  0
VERTEX
  5
3D6
  8
DRAFT
 10
-938.3255271337406
 20
7.329236411297113
 30
0.0
  0
VERTEX
  5
3D7
  8
DRAFT
 10
-938.3175017836944
 20
7.336354832086514
 30
0.0
 42
-1.998067170470884
  0
VERTEX
  5
3D8
  8
DRAFT
 10
-938.3092296908125
 20
7.236744351292661
 30
0.0
  0
VERTEX
  5
3D9
  8
DRAFT
 10
-938.3180755173036
 20
7.242245111773377
 30
0.0
 42
0.1622776624701105
  0
VERTEX
  5
3DA
  8
DRAFT
 10
-938.3565213938077
 20
7.251432854796912
 30
0.0
  0
VERTEX
  5
3DB
  8
DRAFT
 10
-938.4013877655362
 20
7.247511847210731
 30
0.0
 42
-0.2214558604954256
  0
VERTEX
  5
3DC
  8
DRAFT
 10
-938.4509872044424
 20
7.265544329349407
 30
0.0
  0
VERTEX
  5
3DD
  8
DRAFT
 10
-938.7518288574963
 20
7.565894704858054
 30
0.0
 42
0.2214552436147942
  0
VERTEX
  5
3DE
  8
DRAFT
 10
-938.851027499615
 20
7.601959537371609
 30
0.0
  0
VERTEX
  5
3DF
  8
DRAFT
 10
-943.358781800994
 20
7.207998778694616
 30
0.0
 42
-0.0436214061426253
  0
VERTEX
  5
3E0
  8
DRAFT
 10
-947.7241122560398
 20
7.20799877869462
 30
0.0
  0
SEQEND
  5
3E1
  8
DRAFT
  0
POLYLINE
  5
3E2
  8
DRAFT
 66
     1
 10
0.0
 20
0.0
 30
0.0
  0
VERTEX
  5
3E3
  8
DRAFT
 10
-953.6308804283066
 20
7.724222500720273
 30
0.0
 42
-0.6310947064824325
  0
VERTEX
  5
3E4
  8
DRAFT
 10
-953.5518724003008
 20
7.512836983764185
 30
0.0
  0
VERTEX
  5
3E5
  8
DRAFT
 10
-953.6438953678702
 20
7.417603448781747
 30
0.0
 42
-0.2261705714086322
  0
VERTEX
  5
3E6
  8
DRAFT
 10
-953.6942819820343
 20
7.398770832280386
 30
0.0
  0
VERTEX
  5
3E7
  8
DRAFT
 10
-953.7130787907096
 20
7.400413542100182
 30
0.0
 42
-0.1609716664735783
  0
VERTEX
  5
3E8
  8
DRAFT
 10
-953.749110635976
 20
7.415919129249396
 30
0.0
  0
VERTEX
  5
3E9
  8
DRAFT
 10
-953.7571359860225
 20
7.423037550038487
 30
0.0
 42
2.02284802655967
  0
VERTEX
  5
3EA
  8
DRAFT
 10
-953.7654080789046
 20
7.323427069245276
 30
0.0
  0
VERTEX
  5
3EB
  8
DRAFT
 10
-953.7565622524133
 20
7.328927829725501
 30
0.0
 42
-0.1622776624707826
  0
VERTEX
  5
3EC
  8
DRAFT
 10
-953.7181163759091
 20
7.338115572748977
 30
0.0
  0
VERTEX
  5
3ED
  8
DRAFT
 10
-953.6732500041807
 20
7.334194565163116
 30
0.0
 42
0.2214558604973303
  0
VERTEX
  5
3EE
  8
DRAFT
 10
-953.6236505652745
 20
7.35222704730166
 30
0.0
  0
VERTEX
  5
3EF
  8
DRAFT
 10
-953.3228209898465
 20
7.652566317776632
 30
0.0
 42
-0.2214556596421206
  0
VERTEX
  5
3F0
  8
DRAFT
 10
-953.2236222074017
 20
7.688631290388359
 30
0.0
  0
SEQEND
  5
3F1
  8
DRAFT
  0
POLYLINE
  5
3F2
  8
DRAFT
 66
     1
 10
0.0
 20
0.0
 30
0.0
  0
VERTEX
  5
3F3
  8
DRAFT
 10
-952.6391260158408
 20
7.637550855852865
 30
0.0
 42
-0.6310947064869704
  0
VERTEX
  5
3F4
  8
DRAFT
 10
-952.5601179878347
 20
7.426165338897133
 30
0.0
  0
VERTEX
  5
3F5
  8
DRAFT
 10
-952.6521516551867
 20
7.330920730829462
 30
0.0
 42
-0.2261705714007784
  0
VERTEX
  5
3F6
  8
DRAFT
 10
-952.7025382693511
 20
7.312088114328312
 30
0.0
  0
VERTEX
  5
3F7
  8
DRAFT
 10
-952.7213350780261
 20
7.313730824147925
 30
0.0
 42
-0.160971666481983
  0
VERTEX
  5
3F8
  8
DRAFT
 10
-952.7573669232926
 20
7.329236411297284
 30
0.0
  0
VERTEX
  5
3F9
  8
DRAFT
 10
-952.765392273339
 20
7.336354832086229
 30
0.0
 42
2.022848026539608
  0
VERTEX
  5
3FA
  8
DRAFT
 10
-952.773664366221
 20
7.2367443512927
 30
0.0
  0
VERTEX
  5
3FB
  8
DRAFT
 10
-952.7648185397296
 20
7.2422451117733
 30
0.0
 42
-0.1622776624703841
  0
VERTEX
  5
3FC
  8
DRAFT
 10
-952.7263726632259
 20
7.25143285479669
 30
0.0
  0
VERTEX
  5
3FD
  8
DRAFT
 10
-952.6815062914974
 20
7.247511847210788
 30
0.0
 42
0.2214558604866581
  0
VERTEX
  5
3FE
  8
DRAFT
 10
-952.631906852591
 20
7.265544329349598
 30
0.0
  0
VERTEX
  5
3FF
  8
DRAFT
 10
-952.331065199537
 20
7.565894704858025
 30
0.0
 42
-0.2214552436129084
  0
VERTEX
  5
400
  8
DRAFT
 10
-952.2318665574185
 20
7.601959537371579
 30
0.0
  0
SEQEND
  5
401
  8
DRAFT
  0
POLYLINE
  5
402
  8
DRAFT
 66
     1
 10
0.0
 20
0.0
 30
0.0
  0
VERTEX
  5
403
  8
DRAFT
 10
-954.0182951073358
 20
6.252019278449907
 30
0.0
 42
-0.4142489508362788
  0
VERTEX
  5
404
  8
DRAFT
 10
-954.3592128295446
 20
6.658293924403897
 30
0.0
  0
VERTEX
  5
405
  8
DRAFT
 10
-954.2937849131075
 20
7.40577771380822
 30
0.0
 42
-0.414173265032767
  0
VERTEX
  5
406
  8
DRAFT
 10
-953.8875656136224
 20
7.746654795393281
 30
0.0
  0
SEQEND
  5
407
  8
DRAFT
  0
POLYLINE
  5
408
  8
DRAFT
 66
     1
 10
0.0
 20
0.0
 30
0.0
 70
     1
  0
VERTEX
  5
409
  8
DRAFT
 10
-973.9688047156375
 20
7.095937465130319
 30
0.0
 42
0.414213562369984
  0
VERTEX
  5
40A
  8
DRAFT
 10
-973.997210764487
 20
7.129793356623137
 30
0.0
  0
VERTEX
  5
40B
  8
DRAFT
 10
-974.4146593590148
 20
7.166333000888713
 30
0.0
 42
0.414213562389164
  0
VERTEX
  5
40C
  8
DRAFT
 10
-974.448515250507
 20
7.137926952038677
 30
0.0
  0
VERTEX
  5
40D
  8
DRAFT
 10
-974.49596670988
 20
6.595815899199351
 30
0.0
 42
0.414213562378922
  0
VERTEX
  5
40E
  8
DRAFT
 10
-974.4675606610303
 20
6.561960007706615
 30
0.0
  0
VERTEX
  5
40F
  8
DRAFT
 10
-974.0501120665025
 20
6.525420363440992
 30
0.0
 42
0.4142135623639812
  0
VERTEX
  5
410
  8
DRAFT
 10
-974.0162561750101
 20
6.553826412291206
 30
0.0
  0
SEQEND
  5
411
  8
DRAFT
  0
POLYLINE
  5
412
  8
DRAFT
 66
     1
 10
0.0
 20
0.0
 30
0.0
 70
     1
  0
VERTEX
  5
413
  8
DRAFT
 10
-972.8645248300403
 20
6.252032998895515
 30
0.0
  0
VERTEX
  5
414
  8
DRAFT
 10
-972.8003375050054
 20
6.98569748121686
 30
0.0
 42
0.4142135330945781
  0
VERTEX
  5
415
  8
DRAFT
 10
-972.8287449692472
 20
7.019552182220735
 30
0.0
  0
VERTEX
  5
416
  8
DRAFT
 10
-973.3547867521139
 20
7.065574927771493
 30
0.0
 42
0.4142135777900275
  0
VERTEX
  5
417
  8
DRAFT
 10
-973.3886414563741
 20
7.037167462164616
 30
0.0
  0
VERTEX
  5
418
  8
DRAFT
 10
-973.4528288164566
 20
6.303502979666408
 30
0.0
 42
1.000000000025281
  0
VERTEX
  5
419
  8
DRAFT
 10
-973.4129810285328
 20
6.300016749956634
 30
0.0
  0
VERTEX
  5
41A
  8
DRAFT
 10
-973.4002635983633
 20
6.445377307093278
 30
0.0
 42
-0.4142135183818051
  0
VERTEX
  5
41B
  8
DRAFT
 10
-973.3664088960805
 20
6.473784768086094
 30
0.0
  0
VERTEX
  5
41C
  8
DRAFT
 10
-972.9200626807122
 20
6.434734511819101
 30
0.0
 42
-0.4142135477703044
  0
VERTEX
  5
41D
  8
DRAFT
 10
-972.89165521491
 20
6.400879810678711
 30
0.0
  0
VERTEX
  5
41E
  8
DRAFT
 10
-972.9043726179642
 20
6.255519228605522
 30
0.0
 42
0.9999999999958104
  0
SEQEND
  5
41F
  8
DRAFT
  0
POLYLINE
  5
420
  8
DRAFT
 66
     1
 10
0.0
 20
0.0
 30
0.0
  0
VERTEX
  5
421
  8
DRAFT
 10
-975.3076097626516
 20
7.282003215333376
 30
0.0
  0
VERTEX
  5
422
  8
DRAFT
 10
-975.3323971244621
 20
7.284169456776495
 30
0.0
 42
0.1624911418123191
  0
VERTEX
  5
423
  8
DRAFT
 10
-975.4081114578954
 20
7.266517151006116
 30
0.0
 42
0.0901239739894894
  0
VERTEX
  5
424
  8
DRAFT
 10
-975.5427435045256
 20
7.145794573180817
 30
0.0
 42
0.2945408183576319
  0
VERTEX
  5
425
  8
DRAFT
 10
-975.5766666835993
 20
6.757626380127053
 30
0.0
 42
0.0931204833752479
  0
VERTEX
  5
426
  8
DRAFT
 10
-975.4650162421352
 20
6.61538043924448
 30
0.0
 42
0.1594425821307536
  0
VERTEX
  5
427
  8
DRAFT
 10
-975.3935116737465
 20
6.584862233436458
 30
0.0
  0
VERTEX
  5
428
  8
DRAFT
 10
-975.3687243119747
 20
6.582695991549826
 30
0.0
  0
SEQEND
  5
429
  8
DRAFT
  0
POLYLINE
  5
42A
  8
DRAFT
 66
     1
 10
0.0
 20
0.0
 30
0.0
  0
VERTEX
  5
42B
  8
DRAFT
 10
-953.3543608127969
 20
6.193985354900477
 30
0.0
 42
-0.2215234308535375
  0
VERTEX
  5
42C
  8
DRAFT
 10
-953.4458176839406
 20
6.246738585573847
 30
0.0
  0
VERTEX
  5
42D
  8
DRAFT
 10
-953.6899448145999
 20
6.594845803940271
 30
0.0
 42
0.2214558605085309
  0
VERTEX
  5
42E
  8
DRAFT
 10
-953.7356572088862
 20
6.621221015039567
 30
0.0
  0
VERTEX
  5
42F
  8
DRAFT
 10
-953.7805225059914
 20
6.625154299698389
 30
0.0
 42
-0.1622776624766427
  0
VERTEX
  5
430
  8
DRAFT
 10
-953.8167875506243
 20
6.640881555651045
 30
0.0
  0
VERTEX
  5
431
  8
DRAFT
 10
-953.8245432094049
 20
6.647835458803717
 30
0.0
 42
2.01385859608311
  0
VERTEX
  5
432
  8
DRAFT
 10
-953.8337023073616
 20
6.548302618347855
 30
0.0
  0
VERTEX
  5
433
  8
DRAFT
 10
-953.8245623089819
 20
6.553918541024956
 30
0.0
 42
-0.1609716664729469
  0
VERTEX
  5
434
  8
DRAFT
 10
-953.7863845963042
 20
6.562928500008245
 30
0.0
  0
VERTEX
  5
435
  8
DRAFT
 10
-953.7675882378438
 20
6.561280646697458
 30
0.0
 42
-0.2261705714066665
  0
VERTEX
  5
436
  8
DRAFT
 10
-953.7212396466219
 20
6.533980712210265
 30
0.0
  0
VERTEX
  5
437
  8
DRAFT
 10
-953.647036651783
 20
6.424023832257319
 30
0.0
 42
-0.6310043784598621
  0
VERTEX
  5
438
  8
DRAFT
 10
-953.7615351966939
 20
6.229576116306442
 30
0.0
  0
SEQEND
  5
439
  8
DRAFT
  0
POLYLINE
  5
43A
  8
DRAFT
 66
     1
 10
0.0
 20
0.0
 30
0.0
  0
VERTEX
  5
43B
  8
DRAFT
 10
-952.3617407530145
 20
6.077697875906836
 30
0.0
 42
-0.1738231549373241
  0
VERTEX
  5
43C
  8
DRAFT
 10
-952.430646346561
 20
6.126370950705429
 30
0.0
  0
VERTEX
  5
43D
  8
DRAFT
 10
-952.6982229025756
 20
6.507914023506316
 30
0.0
 42
0.2214558604951145
  0
VERTEX
  5
43E
  8
DRAFT
 10
-952.7439352968617
 20
6.534289234606022
 30
0.0
  0
VERTEX
  5
43F
  8
DRAFT
 10
-952.788800593967
 20
6.538222519264536
 30
0.0
 42
-0.1622776624695003
  0
VERTEX
  5
440
  8
DRAFT
 10
-952.8250656386
 20
6.553949775217195
 30
0.0
  0
VERTEX
  5
441
  8
DRAFT
 10
-952.8328212973805
 20
6.560903678369863
 30
0.0
 42
2.013858596055664
  0
VERTEX
  5
442
  8
DRAFT
 10
-952.8419803953374
 20
6.461370837913683
 30
0.0
  0
VERTEX
  5
443
  8
DRAFT
 10
-952.8328403969576
 20
6.466986760591301
 30
0.0
 42
-0.1609716664726227
  0
VERTEX
  5
444
  8
DRAFT
 10
-952.7946626842794
 20
6.475996719574502
 30
0.0
  0
VERTEX
  5
445
  8
DRAFT
 10
-952.7758663258193
 20
6.474348866263768
 30
0.0
 42
-0.2261705714179785
  0
VERTEX
  5
446
  8
DRAFT
 10
-952.7295177345975
 20
6.447048931776302
 30
0.0
  0
VERTEX
  5
447
  8
DRAFT
 10
-952.6554913167482
 20
6.337353710465834
 30
0.0
 42
-0.6310043784715419
  0
VERTEX
  5
448
  8
DRAFT
 10
-952.7699898616592
 20
6.142905994515662
 30
0.0
  0
SEQEND
  5
449
  8
DRAFT
  0
POLYLINE
  5
44A
  8
DRAFT
 66
     1
 10
0.0
 20
0.0
 30
0.0
 70
     1
  0
VERTEX
  5
44B
  8
DRAFT
 10
-939.2676692341987
 20
7.095937465130319
 30
0.0
 42
-0.4142135623562044
  0
VERTEX
  5
44C
  8
DRAFT
 10
-939.2392631853485
 20
7.129793356622439
 30
0.0
  0
VERTEX
  5
44D
  8
DRAFT
 10
-938.8218145908216
 20
7.166333000888713
 30
0.0
 42
-0.414213562386089
  0
VERTEX
  5
44E
  8
DRAFT
 10
-938.7879586993289
 20
7.137926952038697
 30
0.0
  0
VERTEX
  5
44F
  8
DRAFT
 10
-938.7405072399562
 20
6.595815899199351
 30
0.0
 42
-0.4142135623726651
  0
VERTEX
  5
450
  8
DRAFT
 10
-938.7689132888058
 20
6.561960007706787
 30
0.0
  0
VERTEX
  5
451
  8
DRAFT
 10
-939.1863618833337
 20
6.525420363440958
 30
0.0
 42
-0.4142135623708237
  0
VERTEX
  5
452
  8
DRAFT
 10
-939.2202177748256
 20
6.553826412291202
 30
0.0
  0
SEQEND
  5
453
  8
DRAFT
  0
POLYLINE
  5
454
  8
DRAFT
 66
     1
 10
0.0
 20
0.0
 30
0.0
 70
     1
  0
VERTEX
  5
455
  8
DRAFT
 10
-940.3719491197959
 20
6.252032998895515
 30
0.0
  0
VERTEX
  5
456
  8
DRAFT
 10
-940.4361364448308
 20
6.98569748121686
 30
0.0
 42
-0.4142135330878167
  0
VERTEX
  5
457
  8
DRAFT
 10
-940.4077289805892
 20
7.01955218222049
 30
0.0
  0
VERTEX
  5
458
  8
DRAFT
 10
-939.8816871977223
 20
7.06557492777152
 30
0.0
 42
-0.4142135777947579
  0
VERTEX
  5
459
  8
DRAFT
 10
-939.8478324934624
 20
7.037167462164601
 30
0.0
  0
VERTEX
  5
45A
  8
DRAFT
 10
-939.7836451333795
 20
6.303502979666405
 30
0.0
 42
-0.9999999999696533
  0
VERTEX
  5
45B
  8
DRAFT
 10
-939.8234929213045
 20
6.300016749956595
 30
0.0
  0
VERTEX
  5
45C
  8
DRAFT
 10
-939.8362103514729
 20
6.445377307093278
 30
0.0
 42
0.4142135183848809
  0
VERTEX
  5
45D
  8
DRAFT
 10
-939.8700650537554
 20
6.473784768085645
 30
0.0
  0
VERTEX
  5
45E
  8
DRAFT
 10
-940.3164112691239
 20
6.434734511819101
 30
0.0
 42
0.4142135477514269
  0
VERTEX
  5
45F
  8
DRAFT
 10
-940.3448187349262
 20
6.400879810678726
 30
0.0
  0
VERTEX
  5
460
  8
DRAFT
 10
-940.332101331872
 20
6.255519228605522
 30
0.0
 42
-1.000000000039973
  0
SEQEND
  5
461
  8
DRAFT
  0
POLYLINE
  5
462
  8
DRAFT
 66
     1
 10
0.0
 20
0.0
 30
0.0
  0
VERTEX
  5
463
  8
DRAFT
 10
-937.9288641871846
 20
7.282003215333376
 30
0.0
  0
VERTEX
  5
464
  8
DRAFT
 10
-937.9040768253739
 20
7.284169456776388
 30
0.0
 42
-0.1624911418082388
  0
VERTEX
  5
465
  8
DRAFT
 10
-937.8283624919411
 20
7.266517151005979
 30
0.0
 42
-0.0901239739911344
  0
VERTEX
  5
466
  8
DRAFT
 10
-937.6937304453104
 20
7.145794573180763
 30
0.0
 42
-0.2945408183543816
  0
VERTEX
  5
467
  8
DRAFT
 10
-937.659807266237
 20
6.757626380126971
 30
0.0
 42
-0.0931204833714503
  0
VERTEX
  5
468
  8
DRAFT
 10
-937.7714577077011
 20
6.615380439244472
 30
0.0
 42
-0.1594425821315608
  0
VERTEX
  5
469
  8
DRAFT
 10
-937.8429622760897
 20
6.584862233436215
 30
0.0
  0
VERTEX
  5
46A
  8
DRAFT
 10
-937.8677496378617
 20
6.582695991549826
 30
0.0
  0
SEQEND
  5
46B
  8
DRAFT
  0
POLYLINE
  5
46C
  8
DRAFT
 66
     1
 10
0.0
 20
0.0
 30
0.0
 70
     1
  0
VERTEX
  5
46D
  8
DRAFT
 10
-951.8152248228351
 20
7.095937465130319
 30
0.0
 42
0.4142135623787908
  0
VERTEX
  5
46E
  8
DRAFT
 10
-951.8436308716847
 20
7.129793356622535
 30
0.0
  0
VERTEX
  5
46F
  8
DRAFT
 10
-952.2610794662122
 20
7.166333000888693
 30
0.0
 42
0.4142135623630018
  0
VERTEX
  5
470
  8
DRAFT
 10
-952.2949353577047
 20
7.137926952038688
 30
0.0
  0
VERTEX
  5
471
  8
DRAFT
 10
-952.3423868170775
 20
6.595815899199351
 30
0.0
 42
0.4142135623928822
  0
VERTEX
  5
472
  8
DRAFT
 10
-952.3139807682273
 20
6.561960007707375
 30
0.0
  0
VERTEX
  5
473
  8
DRAFT
 10
-951.8965321736999
 20
6.52542036344087
 30
0.0
 42
0.4142135623537675
  0
VERTEX
  5
474
  8
DRAFT
 10
-951.8626762822081
 20
6.553826412291201
 30
0.0
  0
SEQEND
  5
475
  8
DRAFT
  0
POLYLINE
  5
476
  8
DRAFT
 66
     1
 10
0.0
 20
0.0
 30
0.0
 70
     1
  0
VERTEX
  5
477
  8
DRAFT
 10
-950.7109449372377
 20
6.252032998895515
 30
0.0
  0
VERTEX
  5
478
  8
DRAFT
 10
-950.6467576122028
 20
6.98569748121686
 30
0.0
 42
0.4142135330940931
  0
VERTEX
  5
479
  8
DRAFT
 10
-950.6751650764446
 20
7.019552182220716
 30
0.0
  0
VERTEX
  5
47A
  8
DRAFT
 10
-951.2012068593114
 20
7.065574927771449
 30
0.0
 42
0.4142135777777414
  0
VERTEX
  5
47B
  8
DRAFT
 10
-951.2350615635722
 20
7.037167462164678
 30
0.0
  0
VERTEX
  5
47C
  8
DRAFT
 10
-951.2992489236541
 20
6.3035029796664
 30
0.0
 42
1.000000000011337
  0
VERTEX
  5
47D
  8
DRAFT
 10
-951.2594011357306
 20
6.300016749956711
 30
0.0
  0
VERTEX
  5
47E
  8
DRAFT
 10
-951.2466837055607
 20
6.445377307093282
 30
0.0
 42
-0.4142135183896633
  0
VERTEX
  5
47F
  8
DRAFT
 10
-951.212829003278
 20
6.473784768085032
 30
0.0
  0
VERTEX
  5
480
  8
DRAFT
 10
-950.7664827879097
 20
6.434734511819101
 30
0.0
 42
-0.4142135477880647
  0
VERTEX
  5
481
  8
DRAFT
 10
-950.7380753221072
 20
6.400879810678738
 30
0.0
  0
VERTEX
  5
482
  8
DRAFT
 10
-950.7507927251619
 20
6.255519228605537
 30
0.0
 42
1.000000000018415
  0
SEQEND
  5
483
  8
DRAFT
  0
POLYLINE
  5
484
  8
DRAFT
 66
     1
 10
0.0
 20
0.0
 30
0.0
  0
VERTEX
  5
485
  8
DRAFT
 10
-953.1540298698491
 20
7.282003215333376
 30
0.0
  0
VERTEX
  5
486
  8
DRAFT
 10
-953.1788172316595
 20
7.284169456776478
 30
0.0
 42
0.1624911418150216
  0
VERTEX
  5
487
  8
DRAFT
 10
-953.2545315650927
 20
7.266517151006108
 30
0.0
 42
0.0901239739891136
  0
VERTEX
  5
488
  8
DRAFT
 10
-953.3891636117228
 20
7.145794573180808
 30
0.0
 42
0.2945408183551448
  0
VERTEX
  5
489
  8
DRAFT
 10
-953.4230867907968
 20
6.757626380127027
 30
0.0
 42
0.093120483369015
  0
VERTEX
  5
48A
  8
DRAFT
 10
-953.3114363493329
 20
6.615380439244326
 30
0.0
 42
0.1594425821315191
  0
VERTEX
  5
48B
  8
DRAFT
 10
-953.239931780944
 20
6.584862233436757
 30
0.0
  0
VERTEX
  5
48C
  8
DRAFT
 10
-953.2151444191721
 20
6.582695991549826
 30
0.0
  0
SEQEND
  5
48D
  8
DRAFT
  0
LINE
  5
48E
  8
DRAFT
 10
-940.3873901396761
 20
6.428524663734265
 30
0.0
 11
-940.3719491197959
 21
6.252032998895515
 31
0.0
  0
LINE
  5
48F
  8
DRAFT
 10
-950.6955039173575
 20
6.428524663734265
 30
0.0
 11
-950.7109449372377
 21
6.252032998895515
 31
0.0
  0
LINE
  5
490
  8
DRAFT
 10
-972.8490838101601
 20
6.428524663734265
 30
0.0
 11
-972.8645248300403
 21
6.252032998895515
 31
0.0
  0
POLYLINE
  5
491
  8
DRAFT
 66
     1
 10
0.0
 20
0.0
 30
0.0
  0
VERTEX
  5
492
  8
DRAFT
 10
-959.3489083362139
 20
-2.909406190977521
 30
0.0
 42
-0.4141732650308586
  0
VERTEX
  5
493
  8
DRAFT
 10
-958.942689036728
 20
-3.250283272563086
 30
0.0
  0
VERTEX
  5
494
  8
DRAFT
 10
-958.8772611202913
 20
-3.997767061967437
 30
0.0
 42
-0.414248950838086
  0
VERTEX
  5
495
  8
DRAFT
 10
-959.2181788424999
 20
-4.404041707921378
 30
0.0
  0
SEQEND
  5
496
  8
DRAFT
  0
POLYLINE
  5
497
  8
DRAFT
 66
     1
 10
0.0
 20
0.0
 30
0.0
  0
VERTEX
  5
498
  8
DRAFT
 10
-961.0046073924178
 20
-3.054101448999717
 30
0.0
 42
-0.2214552436097791
  0
VERTEX
  5
499
  8
DRAFT
 10
-960.905408750299
 20
-3.090166281513429
 30
0.0
  0
VERTEX
  5
49A
  8
DRAFT
 10
-960.6045670972452
 20
-3.390516657022175
 30
0.0
 42
0.2214558604984594
  0
VERTEX
  5
49B
  8
DRAFT
 10
-960.5549676583386
 20
-3.408549139160581
 30
0.0
  0
VERTEX
  5
49C
  8
DRAFT
 10
-960.5101012866102
 20
-3.404628131574455
 30
0.0
 42
-0.1622776624638736
  0
VERTEX
  5
49D
  8
DRAFT
 10
-960.4716554101062
 20
-3.413815874597908
 30
0.0
  0
VERTEX
  5
49E
  8
DRAFT
 10
-960.4628095836146
 20
-3.419316635078317
 30
0.0
 42
1.989253265125468
  0
VERTEX
  5
49F
  8
DRAFT
 10
-960.4710816764967
 20
-3.319706154285054
 30
0.0
  0
VERTEX
  5
4A0
  8
DRAFT
 10
-960.4791070265431
 20
-3.326824575074198
 30
0.0
 42
-0.1609716664657538
  0
VERTEX
  5
4A1
  8
DRAFT
 10
-960.5151388718097
 20
-3.342330162223583
 30
0.0
  0
VERTEX
  5
4A2
  8
DRAFT
 10
-960.5339356804849
 20
-3.343972872043068
 30
0.0
 42
-0.2261705714018304
  0
VERTEX
  5
4A3
  8
DRAFT
 10
-960.5843222946487
 20
-3.325140255541596
 30
0.0
  0
VERTEX
  5
4A4
  8
DRAFT
 10
-960.6763559620018
 20
-3.229895647474663
 30
0.0
 42
-0.631094706480163
  0
VERTEX
  5
4A5
  8
DRAFT
 10
-960.5973479339953
 20
-3.018510130518509
 30
0.0
  0
SEQEND
  5
4A6
  8
DRAFT
  0
POLYLINE
  5
4A7
  8
DRAFT
 66
     1
 10
0.0
 20
0.0
 30
0.0
  0
VERTEX
  5
4A8
  8
DRAFT
 10
-960.0128517424345
 20
-2.967429695983071
 30
0.0
 42
-0.2214556596410039
  0
VERTEX
  5
4A9
  8
DRAFT
 10
-959.913652959989
 20
-3.003494668594507
 30
0.0
  0
VERTEX
  5
4AA
  8
DRAFT
 10
-959.6128233845612
 20
-3.303833939069563
 30
0.0
 42
0.221455860498764
  0
VERTEX
  5
4AB
  8
DRAFT
 10
-959.5632239456553
 20
-3.321866421208099
 30
0.0
  0
VERTEX
  5
4AC
  8
DRAFT
 10
-959.5183575739269
 20
-3.317945413622269
 30
0.0
 42
-0.1622776624709479
  0
VERTEX
  5
4AD
  8
DRAFT
 10
-959.4799116974226
 20
-3.327133156645984
 30
0.0
  0
VERTEX
  5
4AE
  8
DRAFT
 10
-959.4710658709317
 20
-3.332633917126614
 30
0.0
 42
1.989253265115767
  0
VERTEX
  5
4AF
  8
DRAFT
 10
-959.4793379638134
 20
-3.233023436332686
 30
0.0
  0
VERTEX
  5
4B0
  8
DRAFT
 10
-959.4873633138596
 20
-3.240141857122069
 30
0.0
 42
-0.1609716664680081
  0
VERTEX
  5
4B1
  8
DRAFT
 10
-959.5233951591262
 20
-3.255647444271147
 30
0.0
  0
VERTEX
  5
4B2
  8
DRAFT
 10
-959.5421919678014
 20
-3.257290154090896
 30
0.0
 42
-0.2261705714121661
  0
VERTEX
  5
4B3
  8
DRAFT
 10
-959.5925785819659
 20
-3.238457537589616
 30
0.0
  0
VERTEX
  5
4B4
  8
DRAFT
 10
-959.6846015495352
 20
-3.143224002607241
 30
0.0
 42
-0.6310947064792026
  0
VERTEX
  5
4B5
  8
DRAFT
 10
-959.6055935215294
 20
-2.931838485650625
 30
0.0
  0
SEQEND
  5
4B6
  8
DRAFT
  0
POLYLINE
  5
4B7
  8
DRAFT
 66
     1
 10
0.0
 20
0.0
 30
0.0
  0
VERTEX
  5
4B8
  8
DRAFT
 10
-959.8821131370395
 20
-4.462075631470867
 30
0.0
 42
0.2215234308477336
  0
VERTEX
  5
4B9
  8
DRAFT
 10
-959.7906562658951
 20
-4.409322400797794
 30
0.0
  0
VERTEX
  5
4BA
  8
DRAFT
 10
-959.5465291352361
 20
-4.061215182430972
 30
0.0
 42
-0.22145586051129
  0
VERTEX
  5
4BB
  8
DRAFT
 10
-959.5008167409497
 20
-4.034839971331452
 30
0.0
  0
VERTEX
  5
4BC
  8
DRAFT
 10
-959.4559514438446
 20
-4.030906686672921
 30
0.0
 42
0.1622776624702312
  0
VERTEX
  5
4BD
  8
DRAFT
 10
-959.4196863992117
 20
-4.015179430720334
 30
0.0
  0
VERTEX
  5
4BE
  8
DRAFT
 10
-959.4119307404311
 20
-4.008225527567649
 30
0.0
 42
-2.01385859609921
  0
VERTEX
  5
4BF
  8
DRAFT
 10
-959.4027716424744
 20
-4.107758368022968
 30
0.0
  0
VERTEX
  5
4C0
  8
DRAFT
 10
-959.4119116408546
 20
-4.102142445346303
 30
0.0
 42
0.1609716664670575
  0
VERTEX
  5
4C1
  8
DRAFT
 10
-959.4500893535318
 20
-4.093132486363065
 30
0.0
  0
VERTEX
  5
4C2
  8
DRAFT
 10
-959.4688857119924
 20
-4.094780339673962
 30
0.0
 42
0.2261705714100901
  0
VERTEX
  5
4C3
  8
DRAFT
 10
-959.5152343032144
 20
-4.1220802741611
 30
0.0
  0
VERTEX
  5
4C4
  8
DRAFT
 10
-959.589437298053
 20
-4.232037154114025
 30
0.0
 42
0.6310043784615806
  0
VERTEX
  5
4C5
  8
DRAFT
 10
-959.4749387531415
 20
-4.42648487006506
 30
0.0
  0
SEQEND
  5
4C6
  8
DRAFT
  0
POLYLINE
  5
4C7
  8
DRAFT
 66
     1
 10
0.0
 20
0.0
 30
0.0
  0
VERTEX
  5
4C8
  8
DRAFT
 10
-960.8747331968219
 20
-4.578363110464494
 30
0.0
 42
0.1738231549398607
  0
VERTEX
  5
4C9
  8
DRAFT
 10
-960.8058276032749
 20
-4.529690035666078
 30
0.0
  0
VERTEX
  5
4CA
  8
DRAFT
 10
-960.5382510472608
 20
-4.148146962865027
 30
0.0
 42
-0.2214558604927834
  0
VERTEX
  5
4CB
  8
DRAFT
 10
-960.4925386529743
 20
-4.121771751765393
 30
0.0
  0
VERTEX
  5
4CC
  8
DRAFT
 10
-960.4476733558691
 20
-4.117838467106783
 30
0.0
 42
0.1622776624591518
  0
VERTEX
  5
4CD
  8
DRAFT
 10
-960.4114083112363
 20
-4.102111211153884
 30
0.0
  0
VERTEX
  5
4CE
  8
DRAFT
 10
-960.4036526524557
 20
-4.095157308001474
 30
0.0
 42
-2.01385859610055
  0
VERTEX
  5
4CF
  8
DRAFT
 10
-960.3944935544988
 20
-4.194690148457273
 30
0.0
  0
VERTEX
  5
4D0
  8
DRAFT
 10
-960.4036335528789
 20
-4.189074225780118
 30
0.0
 42
0.1609716664710551
  0
VERTEX
  5
4D1
  8
DRAFT
 10
-960.4418112655568
 20
-4.180064266796474
 30
0.0
  0
VERTEX
  5
4D2
  8
DRAFT
 10
-960.4606076240169
 20
-4.18171212010762
 30
0.0
 42
0.2261705714051444
  0
VERTEX
  5
4D3
  8
DRAFT
 10
-960.5069562152383
 20
-4.209012054595152
 30
0.0
  0
VERTEX
  5
4D4
  8
DRAFT
 10
-960.5809826330877
 20
-4.318707275905497
 30
0.0
 42
0.6310043784617224
  0
VERTEX
  5
4D5
  8
DRAFT
 10
-960.4664840881768
 20
-4.513154991856444
 30
0.0
  0
SEQEND
  5
4D6
  8
DRAFT
  0
POLYLINE
  5
4D7
  8
DRAFT
 66
     1
 10
0.0
 20
0.0
 30
0.0
 70
     1
  0
VERTEX
  5
4D8
  8
DRAFT
 10
-961.4212491270013
 20
-3.560123521241024
 30
0.0
 42
-0.4142135623723117
  0
VERTEX
  5
4D9
  8
DRAFT
 10
-961.3928430781513
 20
-3.526267629749339
 30
0.0
  0
VERTEX
  5
4DA
  8
DRAFT
 10
-960.9753944836242
 20
-3.489727985482631
 30
0.0
 42
-0.414213562379866
  0
VERTEX
  5
4DB
  8
DRAFT
 10
-960.9415385921308
 20
-3.518134034332618
 30
0.0
  0
VERTEX
  5
4DC
  8
DRAFT
 10
-960.8940871327587
 20
-4.060245087171995
 30
0.0
 42
-0.4142135623725216
  0
VERTEX
  5
4DD
  8
DRAFT
 10
-960.9224931816087
 20
-4.094100978664035
 30
0.0
  0
VERTEX
  5
4DE
  8
DRAFT
 10
-961.3399417761362
 20
-4.130640622930481
 30
0.0
 42
-0.4142135623575254
  0
VERTEX
  5
4DF
  8
DRAFT
 10
-961.3737976676281
 20
-4.102234574080144
 30
0.0
  0
SEQEND
  5
4E0
  8
DRAFT
  0
POLYLINE
  5
4E1
  8
DRAFT
 66
     1
 10
0.0
 20
0.0
 30
0.0
 70
     1
  0
VERTEX
  5
4E2
  8
DRAFT
 10
-962.5255290125984
 20
-4.404027987475828
 30
0.0
  0
VERTEX
  5
4E3
  8
DRAFT
 10
-962.5897163376334
 20
-3.670363505154484
 30
0.0
 42
-0.4142135331040352
  0
VERTEX
  5
4E4
  8
DRAFT
 10
-962.5613088733918
 20
-3.63650880415044
 30
0.0
  0
VERTEX
  5
4E5
  8
DRAFT
 10
-962.0352670905248
 20
-3.590486058599911
 30
0.0
 42
-0.414213577790673
  0
VERTEX
  5
4E6
  8
DRAFT
 10
-962.0014123862649
 20
-3.618893524206743
 30
0.0
  0
VERTEX
  5
4E7
  8
DRAFT
 10
-961.9372250261821
 20
-4.352558006704939
 30
0.0
 42
-1.000000000006408
  0
VERTEX
  5
4E8
  8
DRAFT
 10
-961.9770728141056
 20
-4.356044236414673
 30
0.0
  0
VERTEX
  5
4E9
  8
DRAFT
 10
-961.9897902442754
 20
-4.210683679278063
 30
0.0
 42
0.414213518377951
  0
VERTEX
  5
4EA
  8
DRAFT
 10
-962.023644946558
 20
-4.182276218286145
 30
0.0
  0
VERTEX
  5
4EB
  8
DRAFT
 10
-962.4699911619265
 20
-4.221326474552242
 30
0.0
 42
0.4142135477809829
  0
VERTEX
  5
4EC
  8
DRAFT
 10
-962.4983986277298
 20
-4.255181175692653
 30
0.0
  0
VERTEX
  5
4ED
  8
DRAFT
 10
-962.4856812246745
 20
-4.400541757765822
 30
0.0
 42
-0.9999999999908339
  0
SEQEND
  5
4EE
  8
DRAFT
  0
POLYLINE
  5
4EF
  8
DRAFT
 66
     1
 10
0.0
 20
0.0
 30
0.0
  0
VERTEX
  5
4F0
  8
DRAFT
 10
-960.0824440799871
 20
-3.374057771037968
 30
0.0
  0
VERTEX
  5
4F1
  8
DRAFT
 10
-960.0576567181764
 20
-3.371891529594939
 30
0.0
 42
-0.1624911418052169
  0
VERTEX
  5
4F2
  8
DRAFT
 10
-959.9819423847432
 20
-3.389543835365278
 30
0.0
 42
-0.0901239739966981
  0
VERTEX
  5
4F3
  8
DRAFT
 10
-959.8473103381134
 20
-3.510266413190543
 30
0.0
 42
-0.2945408183508446
  0
VERTEX
  5
4F4
  8
DRAFT
 10
-959.8133871590393
 20
-3.898434606244287
 30
0.0
 42
-0.0931204833695164
  0
VERTEX
  5
4F5
  8
DRAFT
 10
-959.9250376005033
 20
-4.040680547126953
 30
0.0
 42
-0.1594425821227112
  0
VERTEX
  5
4F6
  8
DRAFT
 10
-959.9965421688922
 20
-4.071198752934897
 30
0.0
  0
VERTEX
  5
4F7
  8
DRAFT
 10
-960.0213295306643
 20
-4.073364994821517
 30
0.0
  0
SEQEND
  5
4F8
  8
DRAFT
  0
LINE
  5
4F9
  8
DRAFT
 10
-962.5409700324786
 20
-4.227536322637079
 30
0.0
 11
-962.5255290125984
 21
-4.404027987475828
 31
0.0
  0
POLYLINE
  5
4FA
  8
DRAFT
 66
     1
 10
0.0
 20
0.0
 30
0.0
 70
     1
  0
VERTEX
  5
4FB
  8
DRAFT
 10
-954.4355717473702
 20
-2.861512566411854
 30
0.0
 42
0.0436214061428557
  0
VERTEX
  5
4FC
  8
DRAFT
 10
-958.800902202416
 20
-2.861512566411852
 30
0.0
  0
VERTEX
  5
4FD
  8
DRAFT
 10
-965.5123616937966
 20
-3.448068863909675
 30
0.0
 42
-0.0436214061426252
  0
VERTEX
  5
4FE
  8
DRAFT
 10
-969.8776921488419
 20
-3.448068863909672
 30
0.0
  0
VERTEX
  5
4FF
  8
DRAFT
 10
-974.3854464502209
 20
-3.054108105232419
 30
0.0
 42
0.2214552436116359
  0
VERTEX
  5
500
  8
DRAFT
 10
-974.4846450923392
 20
-3.09017293774627
 30
0.0
  0
VERTEX
  5
501
  8
DRAFT
 10
-974.7854867453935
 20
-3.390523313254627
 30
0.0
 42
-0.221455860492815
  0
VERTEX
  5
502
  8
DRAFT
 10
-974.8350861842997
 20
-3.408555795393354
 30
0.0
  0
VERTEX
  5
503
  8
DRAFT
 10
-974.8799525560281
 20
-3.404634787807339
 30
0.0
 42
0.1622776624688489
  0
VERTEX
  5
504
  8
DRAFT
 10
-974.918398432532
 20
-3.413822530831006
 30
0.0
  0
VERTEX
  5
505
  8
DRAFT
 10
-974.9272442590234
 20
-3.419323291311329
 30
0.0
 42
-1.989253265076336
  0
VERTEX
  5
506
  8
DRAFT
 10
-974.9189721661421
 20
-3.319712810518086
 30
0.0
  0
VERTEX
  5
507
  8
DRAFT
 10
-974.9109468160954
 20
-3.326831231307145
 30
0.0
 42
0.160971666471422
  0
VERTEX
  5
508
  8
DRAFT
 10
-974.8749149708286
 20
-3.342336818456526
 30
0.0
  0
VERTEX
  5
509
  8
DRAFT
 10
-974.8561181621536
 20
-3.343979528275926
 30
0.0
 42
0.2261705714073159
  0
VERTEX
  5
50A
  8
DRAFT
 10
-974.8057315479896
 20
-3.32514691177464
 30
0.0
  0
VERTEX
  5
50B
  8
DRAFT
 10
-974.713697880637
 20
-3.229902303707348
 30
0.0
 42
0.6310947064827382
  0
VERTEX
  5
50C
  8
DRAFT
 10
-974.7927059086428
 20
-3.018516786751417
 30
0.0
  0
VERTEX
  5
50D
  8
DRAFT
 10
-975.377202100204
 20
-2.967436352215776
 30
0.0
 42
0.2214556596462335
  0
VERTEX
  5
50E
  8
DRAFT
 10
-975.4764008826495
 20
-3.003501324827616
 30
0.0
  0
VERTEX
  5
50F
  8
DRAFT
 10
-975.7772304580773
 20
-3.303840595302418
 30
0.0
 42
-0.2214558605037581
  0
VERTEX
  5
510
  8
DRAFT
 10
-975.8268298969832
 20
-3.32187307744112
 30
0.0
  0
VERTEX
  5
511
  8
DRAFT
 10
-975.8716962687116
 20
-3.317952069855077
 30
0.0
 42
0.1622776624700195
  0
VERTEX
  5
512
  8
DRAFT
 10
-975.9101421452159
 20
-3.327139812878659
 30
0.0
  0
VERTEX
  5
513
  8
DRAFT
 10
-975.9189879717069
 20
-3.332640573359413
 30
0.0
 42
-1.989253265143967
  0
VERTEX
  5
514
  8
DRAFT
 10
-975.9107158788256
 20
-3.233030092565911
 30
0.0
  0
VERTEX
  5
515
  8
DRAFT
 10
-975.9026905287791
 20
-3.240148513354885
 30
0.0
 42
0.160971666475465
  0
VERTEX
  5
516
  8
DRAFT
 10
-975.8666586835121
 20
-3.25565410050422
 30
0.0
  0
VERTEX
  5
517
  8
DRAFT
 10
-975.8478618748371
 20
-3.25729681032398
 30
0.0
 42
0.226170571402807
  0
VERTEX
  5
518
  8
DRAFT
 10
-975.7974752606725
 20
-3.238464193822597
 30
0.0
  0
VERTEX
  5
519
  8
DRAFT
 10
-975.7054522931032
 20
-3.143230658840083
 30
0.0
 42
0.6310947064841166
  0
VERTEX
  5
51A
  8
DRAFT
 10
-975.784460321109
 20
-2.931845141884171
 30
0.0
  0
VERTEX
  5
51B
  8
DRAFT
 10
-976.0411455064246
 20
-2.909412847210529
 30
0.0
 42
0.4141732650312919
  0
VERTEX
  5
51C
  8
DRAFT
 10
-976.4473648059098
 20
-3.250289928796047
 30
0.0
  0
VERTEX
  5
51D
  8
DRAFT
 10
-976.5127927223474
 20
-3.997773718200356
 30
0.0
 42
0.4142489508368737
  0
VERTEX
  5
51E
  8
DRAFT
 10
-976.1718750001384
 20
-4.404048364154403
 30
0.0
  0
VERTEX
  5
51F
  8
DRAFT
 10
-975.9151150894967
 20
-4.426491526297868
 30
0.0
 42
0.6310043784690977
  0
VERTEX
  5
520
  8
DRAFT
 10
-975.8006165445854
 20
-4.232043810346788
 30
0.0
  0
VERTEX
  5
521
  8
DRAFT
 10
-975.8748195394245
 20
-4.122086930394209
 30
0.0
 42
0.2261705714102732
  0
VERTEX
  5
522
  8
DRAFT
 10
-975.9211681306464
 20
-4.094786995906936
 30
0.0
  0
VERTEX
  5
523
  8
DRAFT
 10
-975.9399644891071
 20
-4.09313914259593
 30
0.0
 42
0.1609716664803273
  0
VERTEX
  5
524
  8
DRAFT
 10
-975.978142201784
 20
-4.102149101579193
 30
0.0
  0
VERTEX
  5
525
  8
DRAFT
 10
-975.987282200164
 20
-4.107765024256338
 30
0.0
 42
-1.998067170510108
  0
VERTEX
  5
526
  8
DRAFT
 10
-975.9781231022073
 20
-4.008232183800557
 30
0.0
  0
VERTEX
  5
527
  8
DRAFT
 10
-975.9703674434268
 20
-4.015186086952961
 30
0.0
 42
0.1622776624596186
  0
VERTEX
  5
528
  8
DRAFT
 10
-975.9341023987939
 20
-4.030913342905855
 30
0.0
  0
VERTEX
  5
529
  8
DRAFT
 10
-975.889237101689
 20
-4.034846627564361
 30
0.0
 42
-0.2214558604990838
  0
VERTEX
  5
52A
  8
DRAFT
 10
-975.8435247074023
 20
-4.061221838663864
 30
0.0
  0
VERTEX
  5
52B
  8
DRAFT
 10
-975.5993975767432
 20
-4.409329057030309
 30
0.0
 42
0.2215234308535067
  0
VERTEX
  5
52C
  8
DRAFT
 10
-975.507940705599
 20
-4.462082287703928
 30
0.0
  0
VERTEX
  5
52D
  8
DRAFT
 10
-974.9235697544619
 20
-4.513161648089319
 30
0.0
 42
0.6310043784587471
  0
VERTEX
  5
52E
  8
DRAFT
 10
-974.8090712095513
 20
-4.318713932138608
 30
0.0
  0
VERTEX
  5
52F
  8
DRAFT
 10
-974.8830976274006
 20
-4.209018710828196
 30
0.0
 42
0.2261705714033275
  0
VERTEX
  5
530
  8
DRAFT
 10
-974.9294462186218
 20
-4.181718776340714
 30
0.0
  0
VERTEX
  5
531
  8
DRAFT
 10
-974.9482425770824
 20
-4.180070923029749
 30
0.0
 42
0.1609716664766415
  0
VERTEX
  5
532
  8
DRAFT
 10
-974.9864202897601
 20
-4.189080882013101
 30
0.0
  0
VERTEX
  5
533
  8
DRAFT
 10
-974.9955602881398
 20
-4.194696804690324
 30
0.0
 42
-1.998067170526032
  0
VERTEX
  5
534
  8
DRAFT
 10
-974.9864011901825
 20
-4.095163964234302
 30
0.0
  0
VERTEX
  5
535
  8
DRAFT
 10
-974.9786455314022
 20
-4.102117867387168
 30
0.0
 42
0.1622776624670239
  0
VERTEX
  5
536
  8
DRAFT
 10
-974.9423804867696
 20
-4.11784512333963
 30
0.0
  0
VERTEX
  5
537
  8
DRAFT
 10
-974.8975151896645
 20
-4.121778407998295
 30
0.0
 42
-0.2214558604829643
  0
VERTEX
  5
538
  8
DRAFT
 10
-974.8518027953779
 20
-4.148153619097926
 30
0.0
  0
VERTEX
  5
539
  8
DRAFT
 10
-974.5842262393636
 20
-4.529696691898849
 30
0.0
 42
0.1738231549350708
  0
VERTEX
  5
53A
  8
DRAFT
 10
-974.5153206458172
 20
-4.578369766697307
 30
0.0
 42
-0.3369513388471123
  0
VERTEX
  5
53B
  8
DRAFT
 10
-973.2334218945198
 20
-6.264602615740189
 30
0.0
  0
VERTEX
  5
53C
  8
DRAFT
 10
-973.23342189452
 20
-10.70104645718565
 30
0.0
 42
0.3889014466557185
  0
VERTEX
  5
53D
  8
DRAFT
 10
-971.635806853794
 20
-12.44439921098726
 30
0.0
  0
VERTEX
  5
53E
  8
DRAFT
 10
-969.8777566244602
 20
-12.5980688639101
 30
0.0
 42
0.0436214070618389
  0
VERTEX
  5
53F
  8
DRAFT
 10
-965.5122972181786
 20
-12.5980688639101
 30
0.0
  0
VERTEX
  5
540
  8
DRAFT
 10
-963.7542469888446
 20
-12.44439921098753
 30
0.0
 42
0.3889014466554901
  0
VERTEX
  5
541
  8
DRAFT
 10
-962.1566319481184
 20
-10.70104645718565
 30
0.0
  0
VERTEX
  5
542
  8
DRAFT
 10
-962.1566319481186
 20
-6.264602615740188
 30
0.0
 42
-0.3889014466557675
  0
VERTEX
  5
543
  8
DRAFT
 10
-960.5590169073927
 20
-4.521249861938177
 30
0.0
  0
VERTEX
  5
544
  8
DRAFT
 10
-958.8009666780589
 20
-4.367580209015753
 30
0.0
 42
-0.0436214070618979
  0
VERTEX
  5
545
  8
DRAFT
 10
-954.435507271777
 20
-4.367580209015753
 30
0.0
  0
VERTEX
  5
546
  8
DRAFT
 10
-952.677457042443
 20
-4.521249861938206
 30
0.0
 42
-0.3889014466554988
  0
VERTEX
  5
547
  8
DRAFT
 10
-951.0798420017173
 20
-6.264602615740188
 30
0.0
  0
VERTEX
  5
548
  8
DRAFT
 10
-951.0798420017171
 20
-10.70104645718565
 30
0.0
 42
0.3889014466556925
  0
VERTEX
  5
549
  8
DRAFT
 10
-949.4822269609912
 20
-12.44439921098736
 30
0.0
  0
VERTEX
  5
54A
  8
DRAFT
 10
-947.7241767316574
 20
-12.59806886391016
 30
0.0
 42
0.0436214070617849
  0
VERTEX
  5
54B
  8
DRAFT
 10
-943.3587173253753
 20
-12.59806886391016
 30
0.0
  0
VERTEX
  5
54C
  8
DRAFT
 10
-941.6006670960411
 20
-12.44439921098742
 30
0.0
 42
0.3889014466552372
  0
VERTEX
  5
54D
  8
DRAFT
 10
-940.0030520553148
 20
-10.70104645718565
 30
0.0
  0
VERTEX
  5
54E
  8
DRAFT
 10
-940.0030520553156
 20
-6.264602615740188
 30
0.0
 42
-0.3369513388574502
  0
VERTEX
  5
54F
  8
DRAFT
 10
-938.7211533040105
 20
-4.578369766728705
 30
0.0
 42
0.1738231547486316
  0
VERTEX
  5
550
  8
DRAFT
 10
-938.6522477104726
 20
-4.529696691898832
 30
0.0
  0
VERTEX
  5
551
  8
DRAFT
 10
-938.384671154458
 20
-4.148153619097922
 30
0.0
 42
-0.221455860490793
  0
VERTEX
  5
552
  8
DRAFT
 10
-938.3389587601717
 20
-4.121778407998486
 30
0.0
  0
VERTEX
  5
553
  8
DRAFT
 10
-938.2940934630666
 20
-4.117845123339845
 30
0.0
 42
0.1622776624633225
  0
VERTEX
  5
554
  8
DRAFT
 10
-938.2578284184336
 20
-4.10211786738702
 30
0.0
  0
VERTEX
  5
555
  8
DRAFT
 10
-938.2500727596531
 20
-4.095163964234814
 30
0.0
 42
-1.989253265177106
  0
VERTEX
  5
556
  8
DRAFT
 10
-938.2409136616963
 20
-4.194696804690138
 30
0.0
  0
VERTEX
  5
557
  8
DRAFT
 10
-938.2500536600763
 20
-4.18908088201307
 30
0.0
 42
0.1609716664700709
  0
VERTEX
  5
558
  8
DRAFT
 10
-938.288231372754
 20
-4.180070923029738
 30
0.0
  0
VERTEX
  5
559
  8
DRAFT
 10
-938.3070277312146
 20
-4.181718776340491
 30
0.0
 42
0.226170571402847
  0
VERTEX
  5
55A
  8
DRAFT
 10
-938.3533763224365
 20
-4.209018710828026
 30
0.0
  0
VERTEX
  5
55B
  8
DRAFT
 10
-938.4274027402844
 20
-4.318713932138748
 30
0.0
 42
0.6310043784719052
  0
VERTEX
  5
55C
  8
DRAFT
 10
-938.3129041953741
 20
-4.513161648089179
 30
0.0
  0
VERTEX
  5
55D
  8
DRAFT
 10
-937.7285332442369
 20
-4.462082287703843
 30
0.0
 42
0.221523430849789
  0
VERTEX
  5
55E
  8
DRAFT
 10
-937.6370763730928
 20
-4.409329057030459
 30
0.0
  0
VERTEX
  5
55F
  8
DRAFT
 10
-937.3929492424336
 20
-4.061221838663873
 30
0.0
 42
-0.221455860486698
  0
VERTEX
  5
560
  8
DRAFT
 10
-937.3472368481472
 20
-4.034846627564523
 30
0.0
  0
VERTEX
  5
561
  8
DRAFT
 10
-937.3023715510423
 20
-4.030913342906076
 30
0.0
 42
0.1622776624710507
  0
VERTEX
  5
562
  8
DRAFT
 10
-937.2661065064093
 20
-4.015186086953178
 30
0.0
  0
VERTEX
  5
563
  8
DRAFT
 10
-937.2583508476288
 20
-4.00823218380016
 30
0.0
 42
-1.989253265098213
  0
VERTEX
  5
564
  8
DRAFT
 10
-937.2491917496721
 20
-4.107765024256303
 30
0.0
  0
VERTEX
  5
565
  8
DRAFT
 10
-937.258331748052
 20
-4.102149101579301
 30
0.0
 42
0.1609716664711721
  0
VERTEX
  5
566
  8
DRAFT
 10
-937.2965094607292
 20
-4.093139142595942
 30
0.0
  0
VERTEX
  5
567
  8
DRAFT
 10
-937.3153058191898
 20
-4.094786995907015
 30
0.0
 42
0.2261705713976308
  0
VERTEX
  5
568
  8
DRAFT
 10
-937.3616544104115
 20
-4.122086930394264
 30
0.0
  0
VERTEX
  5
569
  8
DRAFT
 10
-937.4358574052505
 20
-4.23204381034712
 30
0.0
 42
0.6310043784671105
  0
VERTEX
  5
56A
  8
DRAFT
 10
-937.3213588603393
 20
-4.426491526297681
 30
0.0
  0
VERTEX
  5
56B
  8
DRAFT
 10
-937.0645989496976
 20
-4.404048364154285
 30
0.0
 42
0.4142489508337789
  0
VERTEX
  5
56C
  8
DRAFT
 10
-936.723681227489
 20
-3.997773718200348
 30
0.0
  0
VERTEX
  5
56D
  8
DRAFT
 10
-936.7891091439261
 20
-3.250289928796042
 30
0.0
 42
0.4141732650302348
  0
VERTEX
  5
56E
  8
DRAFT
 10
-937.1953284434111
 20
-2.909412847210088
 30
0.0
  0
VERTEX
  5
56F
  8
DRAFT
 10
-937.4520136287266
 20
-2.931845141883543
 30
0.0
 42
0.6310947064827663
  0
VERTEX
  5
570
  8
DRAFT
 10
-937.531021656733
 20
-3.143230658840279
 30
0.0
  0
VERTEX
  5
571
  8
DRAFT
 10
-937.4389986891632
 20
-3.238464193822477
 30
0.0
 42
0.2261705714141429
  0
VERTEX
  5
572
  8
DRAFT
 10
-937.3886120749991
 20
-3.257296810323784
 30
0.0
  0
VERTEX
  5
573
  8
DRAFT
 10
-937.3698152663242
 20
-3.255654100503865
 30
0.0
 42
0.1609716664622135
  0
VERTEX
  5
574
  8
DRAFT
 10
-937.3337834210571
 20
-3.240148513355027
 30
0.0
  0
VERTEX
  5
575
  8
DRAFT
 10
-937.3257580710106
 20
-3.233030092565599
 30
0.0
 42
-1.998067170455258
  0
VERTEX
  5
576
  8
DRAFT
 10
-937.3174859781292
 20
-3.332640573359385
 30
0.0
  0
VERTEX
  5
577
  8
DRAFT
 10
-937.3263318046205
 20
-3.327139812878769
 30
0.0
 42
0.1622776624784502
  0
VERTEX
  5
578
  8
DRAFT
 10
-937.3647776811243
 20
-3.317952069855154
 30
0.0
  0
VERTEX
  5
579
  8
DRAFT
 10
-937.4096440528527
 20
-3.321873077440964
 30
0.0
 42
-0.2214558604963562
  0
VERTEX
  5
57A
  8
DRAFT
 10
-937.4592434917589
 20
-3.303840595302575
 30
0.0
  0
VERTEX
  5
57B
  8
DRAFT
 10
-937.7600730671868
 20
-3.003501324827612
 30
0.0
 42
0.221455659637953
  0
VERTEX
  5
57C
  8
DRAFT
 10
-937.8592718496319
 20
-2.967436352215814
 30
0.0
  0
VERTEX
  5
57D
  8
DRAFT
 10
-938.4437680411926
 20
-3.018516786751203
 30
0.0
 42
0.6310947064809118
  0
VERTEX
  5
57E
  8
DRAFT
 10
-938.522776069199
 20
-3.229902303707538
 30
0.0
  0
VERTEX
  5
57F
  8
DRAFT
 10
-938.4307424018468
 20
-3.325146911774894
 30
0.0
 42
0.2261705714146052
  0
VERTEX
  5
580
  8
DRAFT
 10
-938.3803557876826
 20
-3.343979528275994
 30
0.0
  0
VERTEX
  5
581
  8
DRAFT
 10
-938.3615589790073
 20
-3.342336818456481
 30
0.0
 42
0.16097166647654
  0
VERTEX
  5
582
  8
DRAFT
 10
-938.3255271337406
 20
-3.326831231307153
 30
0.0
  0
VERTEX
  5
583
  8
DRAFT
 10
-938.3175017836944
 20
-3.319712810517743
 30
0.0
 42
-1.998067170472486
  0
VERTEX
  5
584
  8
DRAFT
 10
-938.3092296908125
 20
-3.419323291311477
 30
0.0
  0
VERTEX
  5
585
  8
DRAFT
 10
-938.3180755173036
 20
-3.413822530830983
 30
0.0
 42
0.1622776624714574
  0
VERTEX
  5
586
  8
DRAFT
 10
-938.3565213938076
 20
-3.404634787807416
 30
0.0
  0
VERTEX
  5
587
  8
DRAFT
 10
-938.4013877655362
 20
-3.408555795393551
 30
0.0
 42
-0.2214558604918772
  0
VERTEX
  5
588
  8
DRAFT
 10
-938.4509872044423
 20
-3.390523313254723
 30
0.0
  0
VERTEX
  5
589
  8
DRAFT
 10
-938.7518288574962
 20
-3.090172937746167
 30
0.0
 42
0.2214552436147371
  0
VERTEX
  5
58A
  8
DRAFT
 10
-938.851027499615
 20
-3.054108105232691
 30
0.0
  0
VERTEX
  5
58B
  8
DRAFT
 10
-943.358781800994
 20
-3.448068863909637
 30
0.0
 42
-0.0436214061426266
  0
VERTEX
  5
58C
  8
DRAFT
 10
-947.7241122560398
 20
-3.448068863909636
 30
0.0
  0
SEQEND
  5
58D
  8
DRAFT
  0
POLYLINE
  5
58E
  8
DRAFT
 66
     1
 10
0.0
 20
0.0
 30
0.0
  0
VERTEX
  5
58F
  8
DRAFT
 10
-953.6308804283066
 20
-2.931845141883983
 30
0.0
 42
-0.6310947064806179
  0
VERTEX
  5
590
  8
DRAFT
 10
-953.5518724003007
 20
-3.143230658840052
 30
0.0
  0
VERTEX
  5
591
  8
DRAFT
 10
-953.6438953678702
 20
-3.238464193822509
 30
0.0
 42
-0.2261705714065353
  0
VERTEX
  5
592
  8
DRAFT
 10
-953.6942819820343
 20
-3.257296810323704
 30
0.0
  0
VERTEX
  5
593
  8
DRAFT
 10
-953.7130787907096
 20
-3.255654100504074
 30
0.0
 42
-0.1609716664758984
  0
VERTEX
  5
594
  8
DRAFT
 10
-953.749110635976
 20
-3.240148513354935
 30
0.0
  0
VERTEX
  5
595
  8
DRAFT
 10
-953.7571359860225
 20
-3.23303009256577
 30
0.0
 42
2.022848026553953
  0
VERTEX
  5
596
  8
DRAFT
 10
-953.7654080789047
 20
-3.332640573359173
 30
0.0
  0
VERTEX
  5
597
  8
DRAFT
 10
-953.7565622524133
 20
-3.327139812878755
 30
0.0
 42
-0.1622776624697392
  0
VERTEX
  5
598
  8
DRAFT
 10
-953.7181163759091
 20
-3.317952069855337
 30
0.0
  0
VERTEX
  5
599
  8
DRAFT
 10
-953.6732500041807
 20
-3.32187307744114
 30
0.0
 42
0.2214558604967322
  0
VERTEX
  5
59A
  8
DRAFT
 10
-953.6236505652745
 20
-3.303840595302578
 30
0.0
  0
VERTEX
  5
59B
  8
DRAFT
 10
-953.3228209898465
 20
-3.003501324827624
 30
0.0
 42
-0.2214556596420158
  0
VERTEX
  5
59C
  8
DRAFT
 10
-953.2236222074017
 20
-2.967436352215815
 30
0.0
  0
SEQEND
  5
59D
  8
DRAFT
  0
POLYLINE
  5
59E
  8
DRAFT
 66
     1
 10
0.0
 20
0.0
 30
0.0
  0
VERTEX
  5
59F
  8
DRAFT
 10
-952.6391260158408
 20
-3.018516786751391
 30
0.0
 42
-0.6310947064855094
  0
VERTEX
  5
5A0
  8
DRAFT
 10
-952.5601179878348
 20
-3.229902303707063
 30
0.0
  0
VERTEX
  5
5A1
  8
DRAFT
 10
-952.6521516551867
 20
-3.325146911774794
 30
0.0
 42
-0.226170571401744
  0
VERTEX
  5
5A2
  8
DRAFT
 10
-952.7025382693511
 20
-3.3439795282758
 30
0.0
  0
VERTEX
  5
5A3
  8
DRAFT
 10
-952.7213350780261
 20
-3.342336818456332
 30
0.0
 42
-0.1609716664776451
  0
VERTEX
  5
5A4
  8
DRAFT
 10
-952.7573669232928
 20
-3.326831231306977
 30
0.0
  0
VERTEX
  5
5A5
  8
DRAFT
 10
-952.765392273339
 20
-3.319712810518027
 30
0.0
 42
2.02284802652737
  0
VERTEX
  5
5A6
  8
DRAFT
 10
-952.773664366221
 20
-3.419323291311532
 30
0.0
  0
VERTEX
  5
5A7
  8
DRAFT
 10
-952.7648185397296
 20
-3.413822530830956
 30
0.0
 42
-0.1622776624706387
  0
VERTEX
  5
5A8
  8
DRAFT
 10
-952.7263726632258
 20
-3.404634787807627
 30
0.0
  0
VERTEX
  5
5A9
  8
DRAFT
 10
-952.6815062914974
 20
-3.408555795393468
 30
0.0
 42
0.2214558604888259
  0
VERTEX
  5
5AA
  8
DRAFT
 10
-952.6319068525908
 20
-3.390523313254774
 30
0.0
  0
VERTEX
  5
5AB
  8
DRAFT
 10
-952.331065199537
 20
-3.090172937746232
 30
0.0
 42
-0.2214552436122042
  0
VERTEX
  5
5AC
  8
DRAFT
 10
-952.2318665574185
 20
-3.054108105232786
 30
0.0
  0
SEQEND
  5
5AD
  8
DRAFT
  0
POLYLINE
  5
5AE
  8
DRAFT
 66
     1
 10
0.0
 20
0.0
 30
0.0
  0
VERTEX
  5
5AF
  8
DRAFT
 10
-954.0182951073358
 20
-4.404048364154349
 30
0.0
 42
-0.4142489508365241
  0
VERTEX
  5
5B0
  8
DRAFT
 10
-954.3592128295446
 20
-3.997773718200362
 30
0.0
  0
VERTEX
  5
5B1
  8
DRAFT
 10
-954.2937849131075
 20
-3.250289928796036
 30
0.0
 42
-0.4141732650328449
  0
VERTEX
  5
5B2
  8
DRAFT
 10
-953.8875656136223
 20
-2.909412847210953
 30
0.0
  0
SEQEND
  5
5B3
  8
DRAFT
  0
POLYLINE
  5
5B4
  8
DRAFT
 66
     1
 10
0.0
 20
0.0
 30
0.0
 70
     1
  0
VERTEX
  5
5B5
  8
DRAFT
 10
-973.9688047156375
 20
-3.560130177473937
 30
0.0
 42
0.4142135623667555
  0
VERTEX
  5
5B6
  8
DRAFT
 10
-973.997210764487
 20
-3.526274285981232
 30
0.0
  0
VERTEX
  5
5B7
  8
DRAFT
 10
-974.4146593590148
 20
-3.489734641715543
 30
0.0
 42
0.4142135623895538
  0
VERTEX
  5
5B8
  8
DRAFT
 10
-974.4485152505072
 20
-3.518140690565565
 30
0.0
  0
VERTEX
  5
5B9
  8
DRAFT
 10
-974.49596670988
 20
-4.060251743404905
 30
0.0
 42
0.414213562379952
  0
VERTEX
  5
5BA
  8
DRAFT
 10
-974.4675606610302
 20
-4.094107634897683
 30
0.0
  0
VERTEX
  5
5BB
  8
DRAFT
 10
-974.0501120665025
 20
-4.130647279163261
 30
0.0
 42
0.4142135623620856
  0
VERTEX
  5
5BC
  8
DRAFT
 10
-974.0162561750101
 20
-4.102241230313051
 30
0.0
  0
SEQEND
  5
5BD
  8
DRAFT
  0
POLYLINE
  5
5BE
  8
DRAFT
 66
     1
 10
0.0
 20
0.0
 30
0.0
 70
     1
  0
VERTEX
  5
5BF
  8
DRAFT
 10
-972.8645248300403
 20
-4.404034643708741
 30
0.0
  0
VERTEX
  5
5C0
  8
DRAFT
 10
-972.8003375050054
 20
-3.670370161387396
 30
0.0
 42
0.414213533094175
  0
VERTEX
  5
5C1
  8
DRAFT
 10
-972.8287449692472
 20
-3.636515460383551
 30
0.0
  0
VERTEX
  5
5C2
  8
DRAFT
 10
-973.3547867521139
 20
-3.590492714832763
 30
0.0
 42
0.4142135777929329
  0
VERTEX
  5
5C3
  8
DRAFT
 10
-973.3886414563738
 20
-3.618900180439656
 30
0.0
  0
VERTEX
  5
5C4
  8
DRAFT
 10
-973.4528288164569
 20
-4.352564662937835
 30
0.0
 42
1.000000000010173
  0
VERTEX
  5
5C5
  8
DRAFT
 10
-973.4129810285327
 20
-4.356050892647649
 30
0.0
  0
VERTEX
  5
5C6
  8
DRAFT
 10
-973.4002635983633
 20
-4.210690335510973
 30
0.0
 42
-0.4142135183855071
  0
VERTEX
  5
5C7
  8
DRAFT
 10
-973.3664088960805
 20
-4.182282874518406
 30
0.0
  0
VERTEX
  5
5C8
  8
DRAFT
 10
-972.9200626807122
 20
-4.221333130785155
 30
0.0
 42
-0.4142135477709162
  0
VERTEX
  5
5C9
  8
DRAFT
 10
-972.8916552149099
 20
-4.255187831925546
 30
0.0
  0
VERTEX
  5
5CA
  8
DRAFT
 10
-972.9043726179642
 20
-4.400548413998735
 30
0.0
 42
1.0000000000009
  0
SEQEND
  5
5CB
  8
DRAFT
  0
POLYLINE
  5
5CC
  8
DRAFT
 66
     1
 10
0.0
 20
0.0
 30
0.0
  0
VERTEX
  5
5CD
  8
DRAFT
 10
-975.3076097626516
 20
-3.374064427270881
 30
0.0
  0
VERTEX
  5
5CE
  8
DRAFT
 10
-975.3323971244621
 20
-3.371898185827834
 30
0.0
 42
0.1624911418132153
  0
VERTEX
  5
5CF
  8
DRAFT
 10
-975.4081114578954
 20
-3.389550491598256
 30
0.0
 42
0.0901239739896209
  0
VERTEX
  5
5D0
  8
DRAFT
 10
-975.5427435045256
 20
-3.510273069423429
 30
0.0
 42
0.2945408183575416
  0
VERTEX
  5
5D1
  8
DRAFT
 10
-975.5766666835992
 20
-3.89844126247719
 30
0.0
 42
0.0931204833766241
  0
VERTEX
  5
5D2
  8
DRAFT
 10
-975.4650162421351
 20
-4.04068720335983
 30
0.0
 42
0.159442582132261
  0
VERTEX
  5
5D3
  8
DRAFT
 10
-975.3935116737465
 20
-4.071205409167801
 30
0.0
  0
VERTEX
  5
5D4
  8
DRAFT
 10
-975.3687243119747
 20
-4.07337165105443
 30
0.0
  0
SEQEND
  5
5D5
  8
DRAFT
  0
POLYLINE
  5
5D6
  8
DRAFT
 66
     1
 10
0.0
 20
0.0
 30
0.0
  0
VERTEX
  5
5D7
  8
DRAFT
 10
-953.3543608127969
 20
-4.46208228770378
 30
0.0
 42
-0.2215234308530944
  0
VERTEX
  5
5D8
  8
DRAFT
 10
-953.4458176839405
 20
-4.409329057030361
 30
0.0
  0
VERTEX
  5
5D9
  8
DRAFT
 10
-953.6899448145999
 20
-4.061221838663934
 30
0.0
 42
0.2214558605075224
  0
VERTEX
  5
5DA
  8
DRAFT
 10
-953.7356572088862
 20
-4.034846627564595
 30
0.0
  0
VERTEX
  5
5DB
  8
DRAFT
 10
-953.7805225059914
 20
-4.030913342905788
 30
0.0
 42
-0.1622776624747639
  0
VERTEX
  5
5DC
  8
DRAFT
 10
-953.8167875506243
 20
-4.015186086953189
 30
0.0
  0
VERTEX
  5
5DD
  8
DRAFT
 10
-953.8245432094049
 20
-4.008232183800571
 30
0.0
 42
2.013858596086986
  0
VERTEX
  5
5DE
  8
DRAFT
 10
-953.8337023073615
 20
-4.107765024256471
 30
0.0
  0
VERTEX
  5
5DF
  8
DRAFT
 10
-953.8245623089819
 20
-4.102149101579282
 30
0.0
 42
-0.1609716664731301
  0
VERTEX
  5
5E0
  8
DRAFT
 10
-953.7863845963042
 20
-4.093139142595976
 30
0.0
  0
VERTEX
  5
5E1
  8
DRAFT
 10
-953.7675882378438
 20
-4.094786995906772
 30
0.0
 42
-0.2261705714061637
  0
VERTEX
  5
5E2
  8
DRAFT
 10
-953.7212396466219
 20
-4.122086930394005
 30
0.0
  0
VERTEX
  5
5E3
  8
DRAFT
 10
-953.647036651783
 20
-4.232043810346937
 30
0.0
 42
-0.6310043784593692
  0
VERTEX
  5
5E4
  8
DRAFT
 10
-953.7615351966939
 20
-4.426491526297945
 30
0.0
  0
SEQEND
  5
5E5
  8
DRAFT
  0
POLYLINE
  5
5E6
  8
DRAFT
 66
     1
 10
0.0
 20
0.0
 30
0.0
  0
VERTEX
  5
5E7
  8
DRAFT
 10
-952.3617407530145
 20
-4.578369766697421
 30
0.0
 42
-0.173823154936176
  0
VERTEX
  5
5E8
  8
DRAFT
 10
-952.4306463465609
 20
-4.529696691898814
 30
0.0
  0
VERTEX
  5
5E9
  8
DRAFT
 10
-952.6982229025756
 20
-4.14815361909794
 30
0.0
 42
0.2214558604947323
  0
VERTEX
  5
5EA
  8
DRAFT
 10
-952.7439352968618
 20
-4.12177840799845
 30
0.0
  0
VERTEX
  5
5EB
  8
DRAFT
 10
-952.788800593967
 20
-4.11784512333972
 30
0.0
 42
-0.1622776624694378
  0
VERTEX
  5
5EC
  8
DRAFT
 10
-952.8250656386
 20
-4.102117867387064
 30
0.0
  0
VERTEX
  5
5ED
  8
DRAFT
 10
-952.8328212973805
 20
-4.095163964234373
 30
0.0
 42
2.013858596033787
  0
VERTEX
  5
5EE
  8
DRAFT
 10
-952.8419803953374
 20
-4.194696804690535
 30
0.0
  0
VERTEX
  5
5EF
  8
DRAFT
 10
-952.8328403969575
 20
-4.189080882013041
 30
0.0
 42
-0.1609716664710567
  0
VERTEX
  5
5F0
  8
DRAFT
 10
-952.7946626842794
 20
-4.180070923029686
 30
0.0
  0
VERTEX
  5
5F1
  8
DRAFT
 10
-952.7758663258193
 20
-4.181718776340575
 30
0.0
 42
-0.2261705714201733
  0
VERTEX
  5
5F2
  8
DRAFT
 10
-952.7295177345975
 20
-4.209018710828043
 30
0.0
  0
VERTEX
  5
5F3
  8
DRAFT
 10
-952.6554913167482
 20
-4.318713932138422
 30
0.0
 42
-0.6310043784694017
  0
VERTEX
  5
5F4
  8
DRAFT
 10
-952.7699898616592
 20
-4.513161648088753
 30
0.0
  0
SEQEND
  5
5F5
  8
DRAFT
  0
POLYLINE
  5
5F6
  8
DRAFT
 66
     1
 10
0.0
 20
0.0
 30
0.0
 70
     1
  0
VERTEX
  5
5F7
  8
DRAFT
 10
-939.2676692341987
 20
-3.560130177473937
 30
0.0
 42
-0.4142135623599409
  0
VERTEX
  5
5F8
  8
DRAFT
 10
-939.2392631853485
 20
-3.526274285981911
 30
0.0
  0
VERTEX
  5
5F9
  8
DRAFT
 10
-938.8218145908216
 20
-3.489734641715543
 30
0.0
 42
-0.4142135623838644
  0
VERTEX
  5
5FA
  8
DRAFT
 10
-938.7879586993288
 20
-3.518140690565557
 30
0.0
  0
VERTEX
  5
5FB
  8
DRAFT
 10
-938.7405072399562
 20
-4.060251743404905
 30
0.0
 42
-0.4142135623653644
  0
VERTEX
  5
5FC
  8
DRAFT
 10
-938.7689132888057
 20
-4.094107634897501
 30
0.0
  0
VERTEX
  5
5FD
  8
DRAFT
 10
-939.1863618833337
 20
-4.130647279163298
 30
0.0
 42
-0.4142135623610181
  0
VERTEX
  5
5FE
  8
DRAFT
 10
-939.2202177748253
 20
-4.102241230313028
 30
0.0
  0
SEQEND
  5
5FF
  8
DRAFT
  0
POLYLINE
  5
600
  8
DRAFT
 66
     1
 10
0.0
 20
0.0
 30
0.0
 70
     1
  0
VERTEX
  5
601
  8
DRAFT
 10
-940.3719491197959
 20
-4.404034643708741
 30
0.0
  0
VERTEX
  5
602
  8
DRAFT
 10
-940.4361364448308
 20
-3.670370161387396
 30
0.0
 42
-0.4142135330909263
  0
VERTEX
  5
603
  8
DRAFT
 10
-940.4077289805894
 20
-3.63651546038387
 30
0.0
  0
VERTEX
  5
604
  8
DRAFT
 10
-939.8816871977223
 20
-3.590492714832803
 30
0.0
 42
-0.4142135777944775
  0
VERTEX
  5
605
  8
DRAFT
 10
-939.8478324934623
 20
-3.618900180439649
 30
0.0
  0
VERTEX
  5
606
  8
DRAFT
 10
-939.7836451333795
 20
-4.352564662937851
 30
0.0
 42
-0.9999999999704404
  0
VERTEX
  5
607
  8
DRAFT
 10
-939.8234929213043
 20
-4.356050892647643
 30
0.0
  0
VERTEX
  5
608
  8
DRAFT
 10
-939.8362103514729
 20
-4.210690335510976
 30
0.0
 42
0.4142135183893088
  0
VERTEX
  5
609
  8
DRAFT
 10
-939.8700650537554
 20
-4.182282874518698
 30
0.0
  0
VERTEX
  5
60A
  8
DRAFT
 10
-940.3164112691239
 20
-4.221333130785155
 30
0.0
 42
0.4142135477489922
  0
VERTEX
  5
60B
  8
DRAFT
 10
-940.3448187349262
 20
-4.255187831925523
 30
0.0
  0
VERTEX
  5
60C
  8
DRAFT
 10
-940.332101331872
 20
-4.400548413998735
 30
0.0
 42
-1.000000000047073
  0
SEQEND
  5
60D
  8
DRAFT
  0
POLYLINE
  5
60E
  8
DRAFT
 66
     1
 10
0.0
 20
0.0
 30
0.0
  0
VERTEX
  5
60F
  8
DRAFT
 10
-937.9288641871846
 20
-3.374064427270881
 30
0.0
  0
VERTEX
  5
610
  8
DRAFT
 10
-937.9040768253739
 20
-3.371898185827819
 30
0.0
 42
-0.1624911418083626
  0
VERTEX
  5
611
  8
DRAFT
 10
-937.828362491941
 20
-3.389550491598187
 30
0.0
 42
-0.0901239739908469
  0
VERTEX
  5
612
  8
DRAFT
 10
-937.6937304453104
 20
-3.510273069423472
 30
0.0
 42
-0.2945408183551919
  0
VERTEX
  5
613
  8
DRAFT
 10
-937.659807266237
 20
-3.89844126247731
 30
0.0
 42
-0.093120483370194
  0
VERTEX
  5
614
  8
DRAFT
 10
-937.771457707701
 20
-4.040687203359888
 30
0.0
 42
-0.1594425821303423
  0
VERTEX
  5
615
  8
DRAFT
 10
-937.8429622760897
 20
-4.071205409168042
 30
0.0
  0
VERTEX
  5
616
  8
DRAFT
 10
-937.8677496378617
 20
-4.07337165105443
 30
0.0
  0
SEQEND
  5
617
  8
DRAFT
  0
POLYLINE
  5
618
  8
DRAFT
 66
     1
 10
0.0
 20
0.0
 30
0.0
 70
     1
  0
VERTEX
  5
619
  8
DRAFT
 10
-951.8152248228351
 20
-3.560130177473937
 30
0.0
 42
0.4142135623726978
  0
VERTEX
  5
61A
  8
DRAFT
 10
-951.8436308716847
 20
-3.526274285981688
 30
0.0
  0
VERTEX
  5
61B
  8
DRAFT
 10
-952.2610794662122
 20
-3.489734641715463
 30
0.0
 42
0.4142135623654531
  0
VERTEX
  5
61C
  8
DRAFT
 10
-952.2949353577048
 20
-3.518140690565554
 30
0.0
  0
VERTEX
  5
61D
  8
DRAFT
 10
-952.3423868170775
 20
-4.060251743404905
 30
0.0
 42
0.414213562397565
  0
VERTEX
  5
61E
  8
DRAFT
 10
-952.3139807682272
 20
-4.094107634896829
 30
0.0
  0
VERTEX
  5
61F
  8
DRAFT
 10
-951.8965321736999
 20
-4.130647279163375
 30
0.0
 42
0.4142135623517168
  0
VERTEX
  5
620
  8
DRAFT
 10
-951.8626762822082
 20
-4.102241230313053
 30
0.0
  0
SEQEND
  5
621
  8
DRAFT
  0
POLYLINE
  5
622
  8
DRAFT
 66
     1
 10
0.0
 20
0.0
 30
0.0
 70
     1
  0
VERTEX
  5
623
  8
DRAFT
 10
-950.7109449372377
 20
-4.404034643708741
 30
0.0
  0
VERTEX
  5
624
  8
DRAFT
 10
-950.6467576122028
 20
-3.670370161387396
 30
0.0
 42
0.4142135330931477
  0
VERTEX
  5
625
  8
DRAFT
 10
-950.6751650764446
 20
-3.636515460383448
 30
0.0
  0
VERTEX
  5
626
  8
DRAFT
 10
-951.2012068593114
 20
-3.590492714832761
 30
0.0
 42
0.4142135777814339
  0
VERTEX
  5
627
  8
DRAFT
 10
-951.2350615635725
 20
-3.618900180439564
 30
0.0
  0
VERTEX
  5
628
  8
DRAFT
 10
-951.2992489236541
 20
-4.352564662937849
 30
0.0
 42
0.9999999999907766
  0
VERTEX
  5
629
  8
DRAFT
 10
-951.2594011357297
 20
-4.356050892647613
 30
0.0
  0
VERTEX
  5
62A
  8
DRAFT
 10
-951.2466837055607
 20
-4.210690335510973
 30
0.0
 42
-0.4142135183870643
  0
VERTEX
  5
62B
  8
DRAFT
 10
-951.212829003278
 20
-4.182282874519193
 30
0.0
  0
VERTEX
  5
62C
  8
DRAFT
 10
-950.7664827879097
 20
-4.221333130785155
 30
0.0
 42
-0.4142135477901585
  0
VERTEX
  5
62D
  8
DRAFT
 10
-950.7380753221069
 20
-4.255187831925541
 30
0.0
  0
VERTEX
  5
62E
  8
DRAFT
 10
-950.7507927251619
 20
-4.400548413998713
 30
0.0
 42
1.000000000028154
  0
SEQEND
  5
62F
  8
DRAFT
  0
POLYLINE
  5
630
  8
DRAFT
 66
     1
 10
0.0
 20
0.0
 30
0.0
  0
VERTEX
  5
631
  8
DRAFT
 10
-953.1540298698491
 20
-3.374064427270881
 30
0.0
  0
VERTEX
  5
632
  8
DRAFT
 10
-953.1788172316595
 20
-3.371898185827798
 30
0.0
 42
0.16249114181505
  0
VERTEX
  5
633
  8
DRAFT
 10
-953.2545315650929
 20
-3.389550491598059
 30
0.0
 42
0.0901239739891767
  0
VERTEX
  5
634
  8
DRAFT
 10
-953.3891636117227
 20
-3.510273069423457
 30
0.0
 42
0.2945408183555152
  0
VERTEX
  5
635
  8
DRAFT
 10
-953.4230867907967
 20
-3.898441262477233
 30
0.0
 42
0.0931204833699663
  0
VERTEX
  5
636
  8
DRAFT
 10
-953.3114363493329
 20
-4.040687203359949
 30
0.0
 42
0.1594425821308326
  0
VERTEX
  5
637
  8
DRAFT
 10
-953.239931780944
 20
-4.071205409167465
 30
0.0
  0
VERTEX
  5
638
  8
DRAFT
 10
-953.2151444191721
 20
-4.07337165105443
 30
0.0
  0
SEQEND
  5
639
  8
DRAFT
  0
LINE
  5
63A
  8
DRAFT
 10
-940.3873901396761
 20
-4.227542978869991
 30
0.0
 11
-940.3719491197959
 21
-4.404034643708741
 31
0.0
  0
LINE
  5
63B
  8
DRAFT
 10
-950.6955039173575
 20
-4.227542978869991
 30
0.0
 11
-950.7109449372377
 21
-4.404034643708741
 31
0.0
  0
LINE
  5
63C
  8
DRAFT
 10
-972.8490838101601
 20
-4.227542978869991
 30
0.0
 11
-972.8645248300403
 21
-4.404034643708741
 31
0.0
  0
POLYLINE
  5
63D
  8
DRAFT
 66
     1
 10
0.0
 20
0.0
 30
0.0
  0
VERTEX
  5
63E
  8
DRAFT
 10
-959.3489083362139
 20
-13.56547383358177
 30
0.0
 42
-0.4141732650308992
  0
VERTEX
  5
63F
  8
DRAFT
 10
-958.942689036728
 20
-13.90635091516734
 30
0.0
  0
VERTEX
  5
640
  8
DRAFT
 10
-958.8772611202913
 20
-14.65383470457169
 30
0.0
 42
-0.4142489508382989
  0
VERTEX
  5
641
  8
DRAFT
 10
-959.2181788424999
 20
-15.06010935052546
 30
0.0
  0
SEQEND
  5
642
  8
DRAFT
  0
POLYLINE
  5
643
  8
DRAFT
 66
     1
 10
0.0
 20
0.0
 30
0.0
  0
VERTEX
  5
644
  8
DRAFT
 10
-961.0046073924178
 20
-13.71016909160397
 30
0.0
 42
-0.2214552436113229
  0
VERTEX
  5
645
  8
DRAFT
 10
-960.9054087502992
 20
-13.74623392411772
 30
0.0
  0
VERTEX
  5
646
  8
DRAFT
 10
-960.6045670972452
 20
-14.04658429962642
 30
0.0
 42
0.2214558604966325
  0
VERTEX
  5
647
  8
DRAFT
 10
-960.5549676583386
 20
-14.06461678176469
 30
0.0
  0
VERTEX
  5
648
  8
DRAFT
 10
-960.5101012866102
 20
-14.0606957741787
 30
0.0
 42
-0.1622776624624974
  0
VERTEX
  5
649
  8
DRAFT
 10
-960.4716554101065
 20
-14.06988351720234
 30
0.0
  0
VERTEX
  5
64A
  8
DRAFT
 10
-960.4628095836146
 20
-14.07538427768257
 30
0.0
 42
1.989253265124107
  0
VERTEX
  5
64B
  8
DRAFT
 10
-960.4710816764967
 20
-13.97577379688933
 30
0.0
  0
VERTEX
  5
64C
  8
DRAFT
 10
-960.4791070265431
 20
-13.98289221767845
 30
0.0
 42
-0.1609716664639877
  0
VERTEX
  5
64D
  8
DRAFT
 10
-960.5151388718097
 20
-13.99839780482787
 30
0.0
  0
VERTEX
  5
64E
  8
DRAFT
 10
-960.5339356804849
 20
-14.00004051464732
 30
0.0
 42
-0.2261705714042511
  0
VERTEX
  5
64F
  8
DRAFT
 10
-960.5843222946488
 20
-13.98120789814595
 30
0.0
  0
VERTEX
  5
650
  8
DRAFT
 10
-960.6763559620018
 20
-13.88596329007891
 30
0.0
 42
-0.631094706478288
  0
VERTEX
  5
651
  8
DRAFT
 10
-960.5973479339953
 20
-13.67457777312277
 30
0.0
  0
SEQEND
  5
652
  8
DRAFT
  0
POLYLINE
  5
653
  8
DRAFT
 66
     1
 10
0.0
 20
0.0
 30
0.0
  0
VERTEX
  5
654
  8
DRAFT
 10
-960.0128517424345
 20
-13.62349733858732
 30
0.0
 42
-0.2214556596418572
  0
VERTEX
  5
655
  8
DRAFT
 10
-959.9136529599891
 20
-13.6595623111988
 30
0.0
  0
VERTEX
  5
656
  8
DRAFT
 10
-959.6128233845612
 20
-13.95990158167381
 30
0.0
 42
0.2214558604971666
  0
VERTEX
  5
657
  8
DRAFT
 10
-959.5632239456553
 20
-13.97793406381232
 30
0.0
  0
VERTEX
  5
658
  8
DRAFT
 10
-959.5183575739269
 20
-13.97401305622652
 30
0.0
 42
-0.1622776624710805
  0
VERTEX
  5
659
  8
DRAFT
 10
-959.4799116974224
 20
-13.98320079925012
 30
0.0
  0
VERTEX
  5
65A
  8
DRAFT
 10
-959.4710658709317
 20
-13.98870155973086
 30
0.0
 42
1.989253265094467
  0
VERTEX
  5
65B
  8
DRAFT
 10
-959.4793379638136
 20
-13.88909107893686
 30
0.0
  0
VERTEX
  5
65C
  8
DRAFT
 10
-959.4873633138596
 20
-13.89620949972632
 30
0.0
 42
-0.1609716664675219
  0
VERTEX
  5
65D
  8
DRAFT
 10
-959.5233951591262
 20
-13.91171508687535
 30
0.0
  0
VERTEX
  5
65E
  8
DRAFT
 10
-959.5421919678014
 20
-13.91335779669514
 30
0.0
 42
-0.2261705714126281
  0
VERTEX
  5
65F
  8
DRAFT
 10
-959.5925785819658
 20
-13.89452518019384
 30
0.0
  0
VERTEX
  5
660
  8
DRAFT
 10
-959.6846015495352
 20
-13.79929164521149
 30
0.0
 42
-0.6310947064801826
  0
VERTEX
  5
661
  8
DRAFT
 10
-959.6055935215294
 20
-13.58790612825481
 30
0.0
  0
SEQEND
  5
662
  8
DRAFT
  0
POLYLINE
  5
663
  8
DRAFT
 66
     1
 10
0.0
 20
0.0
 30
0.0
  0
VERTEX
  5
664
  8
DRAFT
 10
-959.8821131370395
 20
-15.11814327407512
 30
0.0
 42
0.2215234308485336
  0
VERTEX
  5
665
  8
DRAFT
 10
-959.7906562658951
 20
-15.06539004340207
 30
0.0
  0
VERTEX
  5
666
  8
DRAFT
 10
-959.546529135236
 20
-14.71728282503523
 30
0.0
 42
-0.2214558605095264
  0
VERTEX
  5
667
  8
DRAFT
 10
-959.5008167409497
 20
-14.69090761393571
 30
0.0
  0
VERTEX
  5
668
  8
DRAFT
 10
-959.4559514438446
 20
-14.68697432927717
 30
0.0
 42
0.1622776624696883
  0
VERTEX
  5
669
  8
DRAFT
 10
-959.4196863992119
 20
-14.67124707332452
 30
0.0
  0
VERTEX
  5
66A
  8
DRAFT
 10
-959.4119307404311
 20
-14.6642931701719
 30
0.0
 42
-2.013858596095787
  0
VERTEX
  5
66B
  8
DRAFT
 10
-959.4027716424745
 20
-14.76382601062732
 30
0.0
  0
VERTEX
  5
66C
  8
DRAFT
 10
-959.4119116408546
 20
-14.75821008795055
 30
0.0
 42
0.1609716664667587
  0
VERTEX
  5
66D
  8
DRAFT
 10
-959.4500893535318
 20
-14.74920012896726
 30
0.0
  0
VERTEX
  5
66E
  8
DRAFT
 10
-959.4688857119924
 20
-14.75084798227813
 30
0.0
 42
0.226170571412858
  0
VERTEX
  5
66F
  8
DRAFT
 10
-959.5152343032142
 20
-14.77814791676536
 30
0.0
  0
VERTEX
  5
670
  8
DRAFT
 10
-959.589437298053
 20
-14.88810479671827
 30
0.0
 42
0.6310043784618553
  0
VERTEX
  5
671
  8
DRAFT
 10
-959.4749387531416
 20
-15.08255251266918
 30
0.0
  0
SEQEND
  5
672
  8
DRAFT
  0
POLYLINE
  5
673
  8
DRAFT
 66
     1
 10
0.0
 20
0.0
 30
0.0
  0
VERTEX
  5
674
  8
DRAFT
 10
-960.8747331968219
 20
-15.23443075306874
 30
0.0
 42
0.1738231549408618
  0
VERTEX
  5
675
  8
DRAFT
 10
-960.8058276032749
 20
-15.18575767827032
 30
0.0
  0
VERTEX
  5
676
  8
DRAFT
 10
-960.5382510472608
 20
-14.80421460546928
 30
0.0
 42
-0.2214558604933838
  0
VERTEX
  5
677
  8
DRAFT
 10
-960.4925386529743
 20
-14.77783939436976
 30
0.0
  0
VERTEX
  5
678
  8
DRAFT
 10
-960.4476733558691
 20
-14.77390610971106
 30
0.0
 42
0.1622776624590854
  0
VERTEX
  5
679
  8
DRAFT
 10
-960.4114083112363
 20
-14.75817885375817
 30
0.0
  0
VERTEX
  5
67A
  8
DRAFT
 10
-960.4036526524557
 20
-14.75122495060573
 30
0.0
 42
-2.013858596098357
  0
VERTEX
  5
67B
  8
DRAFT
 10
-960.3944935544987
 20
-14.85075779106156
 30
0.0
  0
VERTEX
  5
67C
  8
DRAFT
 10
-960.4036335528789
 20
-14.84514186838437
 30
0.0
 42
0.1609716664706952
  0
VERTEX
  5
67D
  8
DRAFT
 10
-960.4418112655568
 20
-14.83613190940074
 30
0.0
  0
VERTEX
  5
67E
  8
DRAFT
 10
-960.4606076240169
 20
-14.83777976271188
 30
0.0
 42
0.2261705714051001
  0
VERTEX
  5
67F
  8
DRAFT
 10
-960.5069562152383
 20
-14.86507969719941
 30
0.0
  0
VERTEX
  5
680
  8
DRAFT
 10
-960.5809826330877
 20
-14.97477491850978
 30
0.0
 42
0.631004378459979
  0
VERTEX
  5
681
  8
DRAFT
 10
-960.4664840881767
 20
-15.16922263446057
 30
0.0
  0
SEQEND
  5
682
  8
DRAFT
  0
POLYLINE
  5
683
  8
DRAFT
 66
     1
 10
0.0
 20
0.0
 30
0.0
 70
     1
  0
VERTEX
  5
684
  8
DRAFT
 10
-961.4212491270013
 20
-14.21619116384527
 30
0.0
 42
-0.4142135623734213
  0
VERTEX
  5
685
  8
DRAFT
 10
-961.3928430781513
 20
-14.1823352723535
 30
0.0
  0
VERTEX
  5
686
  8
DRAFT
 10
-960.9753944836242
 20
-14.14579562808688
 30
0.0
 42
-0.4142135623763133
  0
VERTEX
  5
687
  8
DRAFT
 10
-960.9415385921308
 20
-14.17420167693687
 30
0.0
  0
VERTEX
  5
688
  8
DRAFT
 10
-960.8940871327587
 20
-14.71631272977624
 30
0.0
 42
-0.4142135623732227
  0
VERTEX
  5
689
  8
DRAFT
 10
-960.9224931816087
 20
-14.75016862126851
 30
0.0
  0
VERTEX
  5
68A
  8
DRAFT
 10
-961.3399417761362
 20
-14.78670826553456
 30
0.0
 42
-0.414213562356749
  0
VERTEX
  5
68B
  8
DRAFT
 10
-961.3737976676282
 20
-14.7583022166844
 30
0.0
  0
SEQEND
  5
68C
  8
DRAFT
  0
POLYLINE
  5
68D
  8
DRAFT
 66
     1
 10
0.0
 20
0.0
 30
0.0
 70
     1
  0
VERTEX
  5
68E
  8
DRAFT
 10
-962.5255290125984
 20
-15.06009563008008
 30
0.0
  0
VERTEX
  5
68F
  8
DRAFT
 10
-962.5897163376334
 20
-14.32643114775873
 30
0.0
 42
-0.4142135331006698
  0
VERTEX
  5
690
  8
DRAFT
 10
-962.5613088733918
 20
-14.29257644675458
 30
0.0
  0
VERTEX
  5
691
  8
DRAFT
 10
-962.0352670905248
 20
-14.24655370120407
 30
0.0
 42
-0.414213577789332
  0
VERTEX
  5
692
  8
DRAFT
 10
-962.0014123862649
 20
-14.274961166811
 30
0.0
  0
VERTEX
  5
693
  8
DRAFT
 10
-961.9372250261821
 20
-15.00862564930919
 30
0.0
 42
-1.00000000001962
  0
VERTEX
  5
694
  8
DRAFT
 10
-961.9770728141057
 20
-15.01211187901892
 30
0.0
  0
VERTEX
  5
695
  8
DRAFT
 10
-961.9897902442755
 20
-14.86675132188231
 30
0.0
 42
0.4142135183776341
  0
VERTEX
  5
696
  8
DRAFT
 10
-962.023644946558
 20
-14.83834386089032
 30
0.0
  0
VERTEX
  5
697
  8
DRAFT
 10
-962.4699911619265
 20
-14.87739411715649
 30
0.0
 42
0.4142135477841808
  0
VERTEX
  5
698
  8
DRAFT
 10
-962.4983986277299
 20
-14.91124881829693
 30
0.0
  0
VERTEX
  5
699
  8
DRAFT
 10
-962.4856812246745
 20
-15.05660940037007
 30
0.0
 42
-0.9999999999991479
  0
SEQEND
  5
69A
  8
DRAFT
  0
POLYLINE
  5
69B
  8
DRAFT
 66
     1
 10
0.0
 20
0.0
 30
0.0
  0
VERTEX
  5
69C
  8
DRAFT
 10
-960.0824440799871
 20
-14.03012541364222
 30
0.0
  0
VERTEX
  5
69D
  8
DRAFT
 10
-960.0576567181764
 20
-14.0279591721991
 30
0.0
 42
-0.1624911418066622
  0
VERTEX
  5
69E
  8
DRAFT
 10
-959.9819423847431
 20
-14.04561147796949
 30
0.0
 42
-0.0901239739966835
  0
VERTEX
  5
69F
  8
DRAFT
 10
-959.8473103381133
 20
-14.16633405579478
 30
0.0
 42
-0.2945408183497827
  0
VERTEX
  5
6A0
  8
DRAFT
 10
-959.8133871590393
 20
-14.55450224884853
 30
0.0
 42
-0.093120483369923
  0
VERTEX
  5
6A1
  8
DRAFT
 10
-959.9250376005034
 20
-14.6967481897312
 30
0.0
 42
-0.1594425821232424
  0
VERTEX
  5
6A2
  8
DRAFT
 10
-959.9965421688922
 20
-14.7272663955393
 30
0.0
  0
VERTEX
  5
6A3
  8
DRAFT
 10
-960.0213295306643
 20
-14.72943263742577
 30
0.0
  0
SEQEND
  5
6A4
  8
DRAFT
  0
LINE
  5
6A5
  8
DRAFT
 10
-962.5409700324786
 20
-14.88360396524133
 30
0.0
 11
-962.5255290125984
 21
-15.06009563008008
 31
0.0
  0
POLYLINE
  5
6A6
  8
DRAFT
 66
     1
 10
0.0
 20
0.0
 30
0.0
 70
     1
  0
VERTEX
  5
6A7
  8
DRAFT
 10
-954.4355717473702
 20
-13.5175802090161
 30
0.0
 42
0.0436214061428557
  0
VERTEX
  5
6A8
  8
DRAFT
 10
-958.800902202416
 20
-13.51758020901609
 30
0.0
  0
VERTEX
  5
6A9
  8
DRAFT
 10
-965.5123616937966
 20
-14.10413650651392
 30
0.0
 42
-0.0436214061426252
  0
VERTEX
  5
6AA
  8
DRAFT
 10
-969.8776921488419
 20
-14.10413650651392
 30
0.0
  0
VERTEX
  5
6AB
  8
DRAFT
 10
-974.3854464502209
 20
-13.71017574783674
 30
0.0
 42
0.2214552436115743
  0
VERTEX
  5
6AC
  8
DRAFT
 10
-974.4846450923392
 20
-13.74624058035058
 30
0.0
  0
VERTEX
  5
6AD
  8
DRAFT
 10
-974.7854867453935
 20
-14.04659095585894
 30
0.0
 42
-0.2214558604915499
  0
VERTEX
  5
6AE
  8
DRAFT
 10
-974.8350861842997
 20
-14.06462343799763
 30
0.0
  0
VERTEX
  5
6AF
  8
DRAFT
 10
-974.8799525560281
 20
-14.06070243041152
 30
0.0
 42
0.1622776624673418
  0
VERTEX
  5
6B0
  8
DRAFT
 10
-974.918398432532
 20
-14.06989017343524
 30
0.0
  0
VERTEX
  5
6B1
  8
DRAFT
 10
-974.9272442590234
 20
-14.07539093391558
 30
0.0
 42
-1.989253265079889
  0
VERTEX
  5
6B2
  8
DRAFT
 10
-974.9189721661421
 20
-13.97578045312244
 30
0.0
  0
VERTEX
  5
6B3
  8
DRAFT
 10
-974.9109468160954
 20
-13.98289887391144
 30
0.0
 42
0.1609716664727064
  0
VERTEX
  5
6B4
  8
DRAFT
 10
-974.8749149708287
 20
-13.99840446106075
 30
0.0
  0
VERTEX
  5
6B5
  8
DRAFT
 10
-974.8561181621536
 20
-14.00004717088014
 30
0.0
 42
0.2261705714100631
  0
VERTEX
  5
6B6
  8
DRAFT
 10
-974.8057315479894
 20
-13.981214554379
 30
0.0
  0
VERTEX
  5
6B7
  8
DRAFT
 10
-974.713697880637
 20
-13.88596994631156
 30
0.0
 42
0.6310947064828102
  0
VERTEX
  5
6B8
  8
DRAFT
 10
-974.7927059086429
 20
-13.67458442935574
 30
0.0
  0
VERTEX
  5
6B9
  8
DRAFT
 10
-975.377202100204
 20
-13.62350399481998
 30
0.0
 42
0.2214556596471097
  0
VERTEX
  5
6BA
  8
DRAFT
 10
-975.4764008826495
 20
-13.6595689674319
 30
0.0
  0
VERTEX
  5
6BB
  8
DRAFT
 10
-975.7772304580772
 20
-13.95990823790668
 30
0.0
 42
-0.2214558605050047
  0
VERTEX
  5
6BC
  8
DRAFT
 10
-975.8268298969832
 20
-13.9779407200454
 30
0.0
  0
VERTEX
  5
6BD
  8
DRAFT
 10
-975.8716962687116
 20
-13.97401971245936
 30
0.0
 42
0.1622776624703228
  0
VERTEX
  5
6BE
  8
DRAFT
 10
-975.9101421452159
 20
-13.98320745548296
 30
0.0
  0
VERTEX
  5
6BF
  8
DRAFT
 10
-975.9189879717069
 20
-13.98870821596366
 30
0.0
 42
-1.989253265158099
  0
VERTEX
  5
6C0
  8
DRAFT
 10
-975.9107158788255
 20
-13.8890977351701
 30
0.0
  0
VERTEX
  5
6C1
  8
DRAFT
 10
-975.9026905287791
 20
-13.89621615595915
 30
0.0
 42
0.1609716664762865
  0
VERTEX
  5
6C2
  8
DRAFT
 10
-975.8666586835121
 20
-13.91172174310835
 30
0.0
  0
VERTEX
  5
6C3
  8
DRAFT
 10
-975.8478618748371
 20
-13.91336445292821
 30
0.0
 42
0.2261705714007147
  0
VERTEX
  5
6C4
  8
DRAFT
 10
-975.7974752606726
 20
-13.89453183642683
 30
0.0
  0
VERTEX
  5
6C5
  8
DRAFT
 10
-975.7054522931033
 20
-13.79929830144431
 30
0.0
 42
0.6310947064846756
  0
VERTEX
  5
6C6
  8
DRAFT
 10
-975.7844603211091
 20
-13.58791278448842
 30
0.0
  0
VERTEX
  5
6C7
  8
DRAFT
 10
-976.0411455064248
 20
-13.56548048981482
 30
0.0
 42
0.4141732650315535
  0
VERTEX
  5
6C8
  8
DRAFT
 10
-976.44736480591
 20
-13.90635757140028
 30
0.0
  0
VERTEX
  5
6C9
  8
DRAFT
 10
-976.5127927223473
 20
-14.65384136080461
 30
0.0
 42
0.4142489508368489
  0
VERTEX
  5
6CA
  8
DRAFT
 10
-976.1718750001384
 20
-15.06011600675875
 30
0.0
  0
VERTEX
  5
6CB
  8
DRAFT
 10
-975.9151150894967
 20
-15.08255916890207
 30
0.0
 42
0.631004378467717
  0
VERTEX
  5
6CC
  8
DRAFT
 10
-975.8006165445858
 20
-14.88811145295118
 30
0.0
  0
VERTEX
  5
6CD
  8
DRAFT
 10
-975.8748195394245
 20
-14.77815457299848
 30
0.0
 42
0.2261705714096695
  0
VERTEX
  5
6CE
  8
DRAFT
 10
-975.9211681306464
 20
-14.75085463851101
 30
0.0
  0
VERTEX
  5
6CF
  8
DRAFT
 10
-975.9399644891071
 20
-14.74920678520034
 30
0.0
 42
0.160971666481152
  0
VERTEX
  5
6D0
  8
DRAFT
 10
-975.978142201784
 20
-14.7582167441835
 30
0.0
  0
VERTEX
  5
6D1
  8
DRAFT
 10
-975.987282200164
 20
-14.76383266686059
 30
0.0
 42
-1.998067170512813
  0
VERTEX
  5
6D2
  8
DRAFT
 10
-975.9781231022073
 20
-14.66429982640473
 30
0.0
  0
VERTEX
  5
6D3
  8
DRAFT
 10
-975.9703674434268
 20
-14.67125372955718
 30
0.0
 42
0.1622776624597087
  0
VERTEX
  5
6D4
  8
DRAFT
 10
-975.9341023987939
 20
-14.68698098551007
 30
0.0
  0
VERTEX
  5
6D5
  8
DRAFT
 10
-975.889237101689
 20
-14.69091427016861
 30
0.0
 42
-0.2214558604997382
  0
VERTEX
  5
6D6
  8
DRAFT
 10
-975.8435247074023
 20
-14.7172894812681
 30
0.0
  0
VERTEX
  5
6D7
  8
DRAFT
 10
-975.5993975767432
 20
-15.06539669963454
 30
0.0
 42
0.2215234308539665
  0
VERTEX
  5
6D8
  8
DRAFT
 10
-975.507940705599
 20
-15.11814993030814
 30
0.0
  0
VERTEX
  5
6D9
  8
DRAFT
 10
-974.9235697544619
 20
-15.16922929069364
 30
0.0
 42
0.6310043784590109
  0
VERTEX
  5
6DA
  8
DRAFT
 10
-974.8090712095512
 20
-14.97478157474281
 30
0.0
  0
VERTEX
  5
6DB
  8
DRAFT
 10
-974.8830976274005
 20
-14.86508635343241
 30
0.0
 42
0.2261705714033737
  0
VERTEX
  5
6DC
  8
DRAFT
 10
-974.9294462186219
 20
-14.83778641894505
 30
0.0
  0
VERTEX
  5
6DD
  8
DRAFT
 10
-974.9482425770824
 20
-14.83613856563399
 30
0.0
 42
0.160971666476753
  0
VERTEX
  5
6DE
  8
DRAFT
 10
-974.9864202897601
 20
-14.84514852461735
 30
0.0
  0
VERTEX
  5
6DF
  8
DRAFT
 10
-974.9955602881398
 20
-14.85076444729457
 30
0.0
 42
-1.998067170508961
  0
VERTEX
  5
6E0
  8
DRAFT
 10
-974.9864011901827
 20
-14.75123160683853
 30
0.0
  0
VERTEX
  5
6E1
  8
DRAFT
 10
-974.9786455314023
 20
-14.75818550999142
 30
0.0
 42
0.1622776624668013
  0
VERTEX
  5
6E2
  8
DRAFT
 10
-974.9423804867696
 20
-14.77391276594398
 30
0.0
  0
VERTEX
  5
6E3
  8
DRAFT
 10
-974.8975151896645
 20
-14.77784605060252
 30
0.0
 42
-0.2214558604835186
  0
VERTEX
  5
6E4
  8
DRAFT
 10
-974.8518027953779
 20
-14.80422126170213
 30
0.0
  0
VERTEX
  5
6E5
  8
DRAFT
 10
-974.5842262393636
 20
-15.1857643345031
 30
0.0
 42
0.1738231549343722
  0
VERTEX
  5
6E6
  8
DRAFT
 10
-974.5153206458172
 20
-15.23443740930157
 30
0.0
 42
-0.3369513388471179
  0
VERTEX
  5
6E7
  8
DRAFT
 10
-973.23342189452
 20
-16.92067025834444
 30
0.0
  0
VERTEX
  5
6E8
  8
DRAFT
 10
-973.23342189452
 20
-21.3571140997899
 30
0.0
 42
0.3889014466555856
  0
VERTEX
  5
6E9
  8
DRAFT
 10
-971.635806853794
 20
-23.10046685359147
 30
0.0
  0
VERTEX
  5
6EA
  8
DRAFT
 10
-969.8777566244602
 20
-23.25413650651435
 30
0.0
 42
0.0436214070618408
  0
VERTEX
  5
6EB
  8
DRAFT
 10
-965.5122972181786
 20
-23.25413650651435
 30
0.0
  0
VERTEX
  5
6EC
  8
DRAFT
 10
-963.7542469888447
 20
-23.10046685359168
 30
0.0
 42
0.3889014466554241
  0
VERTEX
  5
6ED
  8
DRAFT
 10
-962.1566319481185
 20
-21.3571140997899
 30
0.0
  0
VERTEX
  5
6EE
  8
DRAFT
 10
-962.1566319481186
 20
-16.92067025834444
 30
0.0
 42
-0.3889014466557749
  0
VERTEX
  5
6EF
  8
DRAFT
 10
-960.5590169073927
 20
-15.17731750454257
 30
0.0
  0
VERTEX
  5
6F0
  8
DRAFT
 10
-958.8009666780589
 20
-15.02364785162001
 30
0.0
 42
-0.0436214070618938
  0
VERTEX
  5
6F1
  8
DRAFT
 10
-954.435507271777
 20
-15.02364785162002
 30
0.0
  0
VERTEX
  5
6F2
  8
DRAFT
 10
-952.677457042443
 20
-15.17731750454254
 30
0.0
 42
-0.3889014466554859
  0
VERTEX
  5
6F3
  8
DRAFT
 10
-951.0798420017175
 20
-16.92067025834444
 30
0.0
  0
VERTEX
  5
6F4
  8
DRAFT
 10
-951.0798420017171
 20
-21.3571140997899
 30
0.0
 42
0.3889014466556079
  0
VERTEX
  5
6F5
  8
DRAFT
 10
-949.4822269609912
 20
-23.10046685359161
 30
0.0
  0
VERTEX
  5
6F6
  8
DRAFT
 10
-947.7241767316574
 20
-23.25413650651442
 30
0.0
 42
0.0436214070617849
  0
VERTEX
  5
6F7
  8
DRAFT
 10
-943.3587173253753
 20
-23.25413650651442
 30
0.0
  0
VERTEX
  5
6F8
  8
DRAFT
 10
-941.6006670960412
 20
-23.10046685359157
 30
0.0
 42
0.388901446655387
  0
VERTEX
  5
6F9
  8
DRAFT
 10
-940.0030520553149
 20
-21.3571140997899
 30
0.0
  0
VERTEX
  5
6FA
  8
DRAFT
 10
-940.0030520553156
 20
-16.92067025834444
 30
0.0
 42
-0.3369513388575197
  0
VERTEX
  5
6FB
  8
DRAFT
 10
-938.7211533040105
 20
-15.23443740933295
 30
0.0
 42
0.1738231547491508
  0
VERTEX
  5
6FC
  8
DRAFT
 10
-938.6522477104727
 20
-15.18576433450309
 30
0.0
  0
VERTEX
  5
6FD
  8
DRAFT
 10
-938.384671154458
 20
-14.80422126170217
 30
0.0
 42
-0.2214558604934915
  0
VERTEX
  5
6FE
  8
DRAFT
 10
-938.3389587601717
 20
-14.77784605060274
 30
0.0
  0
VERTEX
  5
6FF
  8
DRAFT
 10
-938.2940934630666
 20
-14.77391276594408
 30
0.0
 42
0.1622776624628987
  0
VERTEX
  5
700
  8
DRAFT
 10
-938.2578284184336
 20
-14.75818550999123
 30
0.0
  0
VERTEX
  5
701
  8
DRAFT
 10
-938.2500727596531
 20
-14.75123160683906
 30
0.0
 42
-1.989253265189665
  0
VERTEX
  5
702
  8
DRAFT
 10
-938.2409136616963
 20
-14.85076444729445
 30
0.0
  0
VERTEX
  5
703
  8
DRAFT
 10
-938.2500536600763
 20
-14.84514852461742
 30
0.0
 42
0.1609716664706478
  0
VERTEX
  5
704
  8
DRAFT
 10
-938.288231372754
 20
-14.83613856563394
 30
0.0
  0
VERTEX
  5
705
  8
DRAFT
 10
-938.3070277312146
 20
-14.83778641894482
 30
0.0
 42
0.2261705714007194
  0
VERTEX
  5
706
  8
DRAFT
 10
-938.3533763224361
 20
-14.86508635343236
 30
0.0
  0
VERTEX
  5
707
  8
DRAFT
 10
-938.4274027402845
 20
-14.97478157474297
 30
0.0
 42
0.6310043784715982
  0
VERTEX
  5
708
  8
DRAFT
 10
-938.3129041953742
 20
-15.16922929069322
 30
0.0
  0
VERTEX
  5
709
  8
DRAFT
 10
-937.7285332442369
 20
-15.11814993030806
 30
0.0
 42
0.2215234308500162
  0
VERTEX
  5
70A
  8
DRAFT
 10
-937.6370763730927
 20
-15.06539669963471
 30
0.0
  0
VERTEX
  5
70B
  8
DRAFT
 10
-937.3929492424337
 20
-14.71728948126805
 30
0.0
 42
-0.2214558604842069
  0
VERTEX
  5
70C
  8
DRAFT
 10
-937.3472368481471
 20
-14.69091427016871
 30
0.0
  0
VERTEX
  5
70D
  8
DRAFT
 10
-937.3023715510423
 20
-14.68698098551033
 30
0.0
 42
0.1622776624731475
  0
VERTEX
  5
70E
  8
DRAFT
 10
-937.2661065064093
 20
-14.67125372955744
 30
0.0
  0
VERTEX
  5
70F
  8
DRAFT
 10
-937.2583508476288
 20
-14.66429982640441
 30
0.0
 42
-1.989253265082146
  0
VERTEX
  5
710
  8
DRAFT
 10
-937.2491917496721
 20
-14.76383266686053
 30
0.0
  0
VERTEX
  5
711
  8
DRAFT
 10
-937.258331748052
 20
-14.75821674418358
 30
0.0
 42
0.1609716664688549
  0
VERTEX
  5
712
  8
DRAFT
 10
-937.2965094607292
 20
-14.74920678520014
 30
0.0
  0
VERTEX
  5
713
  8
DRAFT
 10
-937.3153058191898
 20
-14.75085463851126
 30
0.0
 42
0.2261705713999737
  0
VERTEX
  5
714
  8
DRAFT
 10
-937.3616544104116
 20
-14.77815457299848
 30
0.0
  0
VERTEX
  5
715
  8
DRAFT
 10
-937.4358574052504
 20
-14.88811145295138
 30
0.0
 42
0.631004378468941
  0
VERTEX
  5
716
  8
DRAFT
 10
-937.3213588603393
 20
-15.08255916890185
 30
0.0
  0
VERTEX
  5
717
  8
DRAFT
 10
-937.0645989496976
 20
-15.06011600675857
 30
0.0
 42
0.4142489508337529
  0
VERTEX
  5
718
  8
DRAFT
 10
-936.7236812274889
 20
-14.6538413608046
 30
0.0
  0
VERTEX
  5
719
  8
DRAFT
 10
-936.789109143926
 20
-13.90635757140029
 30
0.0
 42
0.4141732650308048
  0
VERTEX
  5
71A
  8
DRAFT
 10
-937.1953284434111
 20
-13.5654804898144
 30
0.0
  0
VERTEX
  5
71B
  8
DRAFT
 10
-937.4520136287266
 20
-13.58791278448782
 30
0.0
 42
0.6310947064826812
  0
VERTEX
  5
71C
  8
DRAFT
 10
-937.5310216567328
 20
-13.79929830144451
 30
0.0
  0
VERTEX
  5
71D
  8
DRAFT
 10
-937.4389986891632
 20
-13.89453183642672
 30
0.0
 42
0.2261705714140863
  0
VERTEX
  5
71E
  8
DRAFT
 10
-937.3886120749991
 20
-13.91336445292802
 30
0.0
  0
VERTEX
  5
71F
  8
DRAFT
 10
-937.3698152663242
 20
-13.91172174310814
 30
0.0
 42
0.1609716664591178
  0
VERTEX
  5
720
  8
DRAFT
 10
-937.3337834210571
 20
-13.89621615595925
 30
0.0
  0
VERTEX
  5
721
  8
DRAFT
 10
-937.3257580710106
 20
-13.88909773516985
 30
0.0
 42
-1.998067170460931
  0
VERTEX
  5
722
  8
DRAFT
 10
-937.3174859781292
 20
-13.98870821596364
 30
0.0
  0
VERTEX
  5
723
  8
DRAFT
 10
-937.3263318046205
 20
-13.98320745548302
 30
0.0
 42
0.1622776624788303
  0
VERTEX
  5
724
  8
DRAFT
 10
-937.3647776811243
 20
-13.97401971245945
 30
0.0
  0
VERTEX
  5
725
  8
DRAFT
 10
-937.4096440528527
 20
-13.97794072004507
 30
0.0
 42
-0.2214558604962091
  0
VERTEX
  5
726
  8
DRAFT
 10
-937.459243491759
 20
-13.95990823790682
 30
0.0
  0
VERTEX
  5
727
  8
DRAFT
 10
-937.7600730671867
 20
-13.65956896743185
 30
0.0
 42
0.2214556596389645
  0
VERTEX
  5
728
  8
DRAFT
 10
-937.8592718496319
 20
-13.62350399482004
 30
0.0
  0
VERTEX
  5
729
  8
DRAFT
 10
-938.4437680411926
 20
-13.67458442935544
 30
0.0
 42
0.6310947064798954
  0
VERTEX
  5
72A
  8
DRAFT
 10
-938.522776069199
 20
-13.88596994631176
 30
0.0
  0
VERTEX
  5
72B
  8
DRAFT
 10
-938.4307424018468
 20
-13.98121455437914
 30
0.0
 42
0.2261705714166695
  0
VERTEX
  5
72C
  8
DRAFT
 10
-938.3803557876826
 20
-14.00004717088021
 30
0.0
  0
VERTEX
  5
72D
  8
DRAFT
 10
-938.3615589790073
 20
-13.99840446106088
 30
0.0
 42
0.1609716664760818
  0
VERTEX
  5
72E
  8
DRAFT
 10
-938.3255271337406
 20
-13.98289887391136
 30
0.0
  0
VERTEX
  5
72F
  8
DRAFT
 10
-938.3175017836944
 20
-13.97578045312199
 30
0.0
 42
-1.998067170470613
  0
VERTEX
  5
730
  8
DRAFT
 10
-938.3092296908125
 20
-14.07539093391586
 30
0.0
  0
VERTEX
  5
731
  8
DRAFT
 10
-938.3180755173036
 20
-14.06989017343525
 30
0.0
 42
0.1622776624713497
  0
VERTEX
  5
732
  8
DRAFT
 10
-938.3565213938076
 20
-14.06070243041169
 30
0.0
  0
VERTEX
  5
733
  8
DRAFT
 10
-938.4013877655362
 20
-14.06462343799777
 30
0.0
 42
-0.2214558604916894
  0
VERTEX
  5
734
  8
DRAFT
 10
-938.4509872044426
 20
-14.04659095585908
 30
0.0
  0
VERTEX
  5
735
  8
DRAFT
 10
-938.7518288574963
 20
-13.74624058035046
 30
0.0
 42
0.2214552436146107
  0
VERTEX
  5
736
  8
DRAFT
 10
-938.851027499615
 20
-13.71017574783669
 30
0.0
  0
VERTEX
  5
737
  8
DRAFT
 10
-943.358781800994
 20
-14.10413650651389
 30
0.0
 42
-0.0436214061426253
  0
VERTEX
  5
738
  8
DRAFT
 10
-947.7241122560398
 20
-14.10413650651388
 30
0.0
  0
SEQEND
  5
739
  8
DRAFT
  0
POLYLINE
  5
73A
  8
DRAFT
 66
     1
 10
0.0
 20
0.0
 30
0.0
  0
VERTEX
  5
73B
  8
DRAFT
 10
-953.6308804283066
 20
-13.58791278448823
 30
0.0
 42
-0.6310947064826148
  0
VERTEX
  5
73C
  8
DRAFT
 10
-953.5518724003007
 20
-13.79929830144436
 30
0.0
  0
VERTEX
  5
73D
  8
DRAFT
 10
-953.6438953678702
 20
-13.89453183642676
 30
0.0
 42
-0.226170571406879
  0
VERTEX
  5
73E
  8
DRAFT
 10
-953.6942819820343
 20
-13.91336445292788
 30
0.0
  0
VERTEX
  5
73F
  8
DRAFT
 10
-953.7130787907096
 20
-13.91172174310832
 30
0.0
 42
-0.1609716664743578
  0
VERTEX
  5
740
  8
DRAFT
 10
-953.7491106359761
 20
-13.89621615595916
 30
0.0
  0
VERTEX
  5
741
  8
DRAFT
 10
-953.7571359860225
 20
-13.88909773517002
 30
0.0
 42
2.022848026554889
  0
VERTEX
  5
742
  8
DRAFT
 10
-953.7654080789049
 20
-13.98870821596287
 30
0.0
  0
VERTEX
  5
743
  8
DRAFT
 10
-953.7565622524133
 20
-13.983207455483
 30
0.0
 42
-0.1622776624681959
  0
VERTEX
  5
744
  8
DRAFT
 10
-953.7181163759091
 20
-13.97401971245953
 30
0.0
  0
VERTEX
  5
745
  8
DRAFT
 10
-953.6732500041807
 20
-13.97794072004539
 30
0.0
 42
0.2214558604953829
  0
VERTEX
  5
746
  8
DRAFT
 10
-953.6236505652746
 20
-13.95990823790671
 30
0.0
  0
VERTEX
  5
747
  8
DRAFT
 10
-953.3228209898465
 20
-13.65956896743187
 30
0.0
 42
-0.2214556596424806
  0
VERTEX
  5
748
  8
DRAFT
 10
-953.2236222074017
 20
-13.62350399482019
 30
0.0
  0
SEQEND
  5
749
  8
DRAFT
  0
POLYLINE
  5
74A
  8
DRAFT
 66
     1
 10
0.0
 20
0.0
 30
0.0
  0
VERTEX
  5
74B
  8
DRAFT
 10
-952.6391260158408
 20
-13.67458442935564
 30
0.0
 42
-0.6310947064869391
  0
VERTEX
  5
74C
  8
DRAFT
 10
-952.5601179878347
 20
-13.88596994631137
 30
0.0
  0
VERTEX
  5
74D
  8
DRAFT
 10
-952.6521516551867
 20
-13.98121455437904
 30
0.0
 42
-0.226170571400597
  0
VERTEX
  5
74E
  8
DRAFT
 10
-952.7025382693511
 20
-14.00004717088018
 30
0.0
  0
VERTEX
  5
74F
  8
DRAFT
 10
-952.7213350780261
 20
-13.99840446106058
 30
0.0
 42
-0.1609716664798865
  0
VERTEX
  5
750
  8
DRAFT
 10
-952.7573669232926
 20
-13.98289887391121
 30
0.0
  0
VERTEX
  5
751
  8
DRAFT
 10
-952.765392273339
 20
-13.97578045312228
 30
0.0
 42
2.022848026543579
  0
VERTEX
  5
752
  8
DRAFT
 10
-952.7736643662209
 20
-14.07539093391592
 30
0.0
  0
VERTEX
  5
753
  8
DRAFT
 10
-952.7648185397296
 20
-14.0698901734352
 30
0.0
 42
-0.1622776624715452
  0
VERTEX
  5
754
  8
DRAFT
 10
-952.7263726632258
 20
-14.0607024304119
 30
0.0
  0
VERTEX
  5
755
  8
DRAFT
 10
-952.6815062914974
 20
-14.06462343799772
 30
0.0
 42
0.2214558604883496
  0
VERTEX
  5
756
  8
DRAFT
 10
-952.6319068525909
 20
-14.04659095585892
 30
0.0
  0
VERTEX
  5
757
  8
DRAFT
 10
-952.331065199537
 20
-13.74624058035048
 30
0.0
 42
-0.2214552436141285
  0
VERTEX
  5
758
  8
DRAFT
 10
-952.2318665574184
 20
-13.71017574783705
 30
0.0
  0
SEQEND
  5
759
  8
DRAFT
  0
POLYLINE
  5
75A
  8
DRAFT
 66
     1
 10
0.0
 20
0.0
 30
0.0
  0
VERTEX
  5
75B
  8
DRAFT
 10
-954.0182951073358
 20
-15.0601160067586
 30
0.0
 42
-0.414248950836416
  0
VERTEX
  5
75C
  8
DRAFT
 10
-954.3592128295445
 20
-14.65384136080461
 30
0.0
  0
VERTEX
  5
75D
  8
DRAFT
 10
-954.2937849131075
 20
-13.90635757140029
 30
0.0
 42
-0.4141732650330139
  0
VERTEX
  5
75E
  8
DRAFT
 10
-953.8875656136223
 20
-13.56548048981501
 30
0.0
  0
SEQEND
  5
75F
  8
DRAFT
  0
POLYLINE
  5
760
  8
DRAFT
 66
     1
 10
0.0
 20
0.0
 30
0.0
 70
     1
  0
VERTEX
  5
761
  8
DRAFT
 10
-973.9688047156375
 20
-14.21619782007819
 30
0.0
 42
0.4142135623662672
  0
VERTEX
  5
762
  8
DRAFT
 10
-973.997210764487
 20
-14.18234192858552
 30
0.0
  0
VERTEX
  5
763
  8
DRAFT
 10
-974.4146593590148
 20
-14.14580228431979
 30
0.0
 42
0.4142135623966386
  0
VERTEX
  5
764
  8
DRAFT
 10
-974.4485152505072
 20
-14.17420833316981
 30
0.0
  0
VERTEX
  5
765
  8
DRAFT
 10
-974.49596670988
 20
-14.71631938600915
 30
0.0
 42
0.4142135623760241
  0
VERTEX
  5
766
  8
DRAFT
 10
-974.4675606610302
 20
-14.75017527750177
 30
0.0
  0
VERTEX
  5
767
  8
DRAFT
 10
-974.0501120665025
 20
-14.78671492176747
 30
0.0
 42
0.4142135623638493
  0
VERTEX
  5
768
  8
DRAFT
 10
-974.01625617501
 20
-14.7583088729173
 30
0.0
  0
SEQEND
  5
769
  8
DRAFT
  0
POLYLINE
  5
76A
  8
DRAFT
 66
     1
 10
0.0
 20
0.0
 30
0.0
 70
     1
  0
VERTEX
  5
76B
  8
DRAFT
 10
-972.8645248300403
 20
-15.06010228631299
 30
0.0
  0
VERTEX
  5
76C
  8
DRAFT
 10
-972.8003375050054
 20
-14.32643780399165
 30
0.0
 42
0.4142135330905833
  0
VERTEX
  5
76D
  8
DRAFT
 10
-972.8287449692472
 20
-14.29258310298753
 30
0.0
  0
VERTEX
  5
76E
  8
DRAFT
 10
-973.3547867521139
 20
-14.24656035743701
 30
0.0
 42
0.4142135777945171
  0
VERTEX
  5
76F
  8
DRAFT
 10
-973.3886414563738
 20
-14.27496782304391
 30
0.0
  0
VERTEX
  5
770
  8
DRAFT
 10
-973.4528288164569
 20
-15.00863230554208
 30
0.0
 42
1.000000000029953
  0
VERTEX
  5
771
  8
DRAFT
 10
-973.4129810285322
 20
-15.01211853525193
 30
0.0
  0
VERTEX
  5
772
  8
DRAFT
 10
-973.4002635983633
 20
-14.86675797811522
 30
0.0
 42
-0.4142135183805143
  0
VERTEX
  5
773
  8
DRAFT
 10
-973.3664088960805
 20
-14.83835051712246
 30
0.0
  0
VERTEX
  5
774
  8
DRAFT
 10
-972.9200626807122
 20
-14.8774007733894
 30
0.0
 42
-0.4142135477712243
  0
VERTEX
  5
775
  8
DRAFT
 10
-972.8916552149099
 20
-14.9112554745298
 30
0.0
  0
VERTEX
  5
776
  8
DRAFT
 10
-972.9043726179642
 20
-15.05661605660298
 30
0.0
 42
0.9999999999988419
  0
SEQEND
  5
777
  8
DRAFT
  0
POLYLINE
  5
778
  8
DRAFT
 66
     1
 10
0.0
 20
0.0
 30
0.0
  0
VERTEX
  5
779
  8
DRAFT
 10
-975.3076097626516
 20
-14.03013206987513
 30
0.0
  0
VERTEX
  5
77A
  8
DRAFT
 10
-975.3323971244621
 20
-14.02796582843207
 30
0.0
 42
0.1624911418133224
  0
VERTEX
  5
77B
  8
DRAFT
 10
-975.4081114578953
 20
-14.0456181342025
 30
0.0
 42
0.0901239739895397
  0
VERTEX
  5
77C
  8
DRAFT
 10
-975.5427435045254
 20
-14.16634071202769
 30
0.0
 42
0.2945408183577278
  0
VERTEX
  5
77D
  8
DRAFT
 10
-975.5766666835992
 20
-14.55450890508146
 30
0.0
 42
0.0931204833757755
  0
VERTEX
  5
77E
  8
DRAFT
 10
-975.4650162421352
 20
-14.69675484596402
 30
0.0
 42
0.1594425821307324
  0
VERTEX
  5
77F
  8
DRAFT
 10
-975.3935116737465
 20
-14.72727305177206
 30
0.0
  0
VERTEX
  5
780
  8
DRAFT
 10
-975.3687243119747
 20
-14.72943929365868
 30
0.0
  0
SEQEND
  5
781
  8
DRAFT
  0
POLYLINE
  5
782
  8
DRAFT
 66
     1
 10
0.0
 20
0.0
 30
0.0
  0
VERTEX
  5
783
  8
DRAFT
 10
-953.3543608127969
 20
-15.11814993030803
 30
0.0
 42
-0.2215234308533141
  0
VERTEX
  5
784
  8
DRAFT
 10
-953.4458176839404
 20
-15.06539669963457
 30
0.0
  0
VERTEX
  5
785
  8
DRAFT
 10
-953.6899448145999
 20
-14.71728948126819
 30
0.0
 42
0.22145586050668
  0
VERTEX
  5
786
  8
DRAFT
 10
-953.7356572088862
 20
-14.69091427016886
 30
0.0
  0
VERTEX
  5
787
  8
DRAFT
 10
-953.7805225059914
 20
-14.68698098551017
 30
0.0
 42
-0.1622776624754083
  0
VERTEX
  5
788
  8
DRAFT
 10
-953.8167875506243
 20
-14.67125372955742
 30
0.0
  0
VERTEX
  5
789
  8
DRAFT
 10
-953.8245432094049
 20
-14.66429982640481
 30
0.0
 42
2.013858596105846
  0
VERTEX
  5
78A
  8
DRAFT
 10
-953.8337023073614
 20
-14.76383266686073
 30
0.0
  0
VERTEX
  5
78B
  8
DRAFT
 10
-953.8245623089819
 20
-14.75821674418355
 30
0.0
 42
-0.1609716664729469
  0
VERTEX
  5
78C
  8
DRAFT
 10
-953.7863845963042
 20
-14.74920678520026
 30
0.0
  0
VERTEX
  5
78D
  8
DRAFT
 10
-953.7675882378438
 20
-14.75085463851112
 30
0.0
 42
-0.2261705714073707
  0
VERTEX
  5
78E
  8
DRAFT
 10
-953.7212396466218
 20
-14.77815457299819
 30
0.0
  0
VERTEX
  5
78F
  8
DRAFT
 10
-953.647036651783
 20
-14.88811145295119
 30
0.0
 42
-0.6310043784609216
  0
VERTEX
  5
790
  8
DRAFT
 10
-953.7615351966939
 20
-15.08255916890213
 30
0.0
  0
SEQEND
  5
791
  8
DRAFT
  0
POLYLINE
  5
792
  8
DRAFT
 66
     1
 10
0.0
 20
0.0
 30
0.0
  0
VERTEX
  5
793
  8
DRAFT
 10
-952.3617407530145
 20
-15.23443740930167
 30
0.0
 42
-0.1738231549357414
  0
VERTEX
  5
794
  8
DRAFT
 10
-952.430646346561
 20
-15.18576433450306
 30
0.0
  0
VERTEX
  5
795
  8
DRAFT
 10
-952.6982229025756
 20
-14.80422126170219
 30
0.0
 42
0.2214558604958244
  0
VERTEX
  5
796
  8
DRAFT
 10
-952.7439352968617
 20
-14.7778460506025
 30
0.0
  0
VERTEX
  5
797
  8
DRAFT
 10
-952.788800593967
 20
-14.77391276594397
 30
0.0
 42
-0.162277662468567
  0
VERTEX
  5
798
  8
DRAFT
 10
-952.8250656386
 20
-14.75818550999135
 30
0.0
  0
VERTEX
  5
799
  8
DRAFT
 10
-952.8328212973805
 20
-14.75123160683867
 30
0.0
 42
2.013858596053883
  0
VERTEX
  5
79A
  8
DRAFT
 10
-952.8419803953375
 20
-14.85076444729465
 30
0.0
  0
VERTEX
  5
79B
  8
DRAFT
 10
-952.8328403969576
 20
-14.84514852461725
 30
0.0
 42
-0.1609716664710194
  0
VERTEX
  5
79C
  8
DRAFT
 10
-952.7946626842794
 20
-14.83613856563386
 30
0.0
  0
VERTEX
  5
79D
  8
DRAFT
 10
-952.7758663258193
 20
-14.83778641894484
 30
0.0
 42
-0.2261705714186268
  0
VERTEX
  5
79E
  8
DRAFT
 10
-952.7295177345975
 20
-14.86508635343229
 30
0.0
  0
VERTEX
  5
79F
  8
DRAFT
 10
-952.6554913167482
 20
-14.97478157474267
 30
0.0
 42
-0.6310043784695201
  0
VERTEX
  5
7A0
  8
DRAFT
 10
-952.769989861659
 20
-15.16922929069283
 30
0.0
  0
SEQEND
  5
7A1
  8
DRAFT
  0
POLYLINE
  5
7A2
  8
DRAFT
 66
     1
 10
0.0
 20
0.0
 30
0.0
 70
     1
  0
VERTEX
  5
7A3
  8
DRAFT
 10
-939.2676692341987
 20
-14.21619782007819
 30
0.0
 42
-0.4142135623628569
  0
VERTEX
  5
7A4
  8
DRAFT
 10
-939.2392631853485
 20
-14.18234192858612
 30
0.0
  0
VERTEX
  5
7A5
  8
DRAFT
 10
-938.8218145908216
 20
-14.14580228431979
 30
0.0
 42
-0.4142135623874353
  0
VERTEX
  5
7A6
  8
DRAFT
 10
-938.7879586993288
 20
-14.17420833316979
 30
0.0
  0
VERTEX
  5
7A7
  8
DRAFT
 10
-938.7405072399562
 20
-14.71631938600915
 30
0.0
 42
-0.4142135623703191
  0
VERTEX
  5
7A8
  8
DRAFT
 10
-938.7689132888057
 20
-14.75017527750177
 30
0.0
  0
VERTEX
  5
7A9
  8
DRAFT
 10
-939.1863618833337
 20
-14.78671492176755
 30
0.0
 42
-0.4142135623648753
  0
VERTEX
  5
7AA
  8
DRAFT
 10
-939.2202177748255
 20
-14.7583088729173
 30
0.0
  0
SEQEND
  5
7AB
  8
DRAFT
  0
POLYLINE
  5
7AC
  8
DRAFT
 66
     1
 10
0.0
 20
0.0
 30
0.0
 70
     1
  0
VERTEX
  5
7AD
  8
DRAFT
 10
-940.3719491197959
 20
-15.06010228631299
 30
0.0
  0
VERTEX
  5
7AE
  8
DRAFT
 10
-940.4361364448308
 20
-14.32643780399165
 30
0.0
 42
-0.414213533089536
  0
VERTEX
  5
7AF
  8
DRAFT
 10
-940.4077289805892
 20
-14.29258310298806
 30
0.0
  0
VERTEX
  5
7B0
  8
DRAFT
 10
-939.8816871977223
 20
-14.24656035743701
 30
0.0
 42
-0.4142135777946235
  0
VERTEX
  5
7B1
  8
DRAFT
 10
-939.8478324934624
 20
-14.2749678230439
 30
0.0
  0
VERTEX
  5
7B2
  8
DRAFT
 10
-939.7836451333795
 20
-15.0086323055421
 30
0.0
 42
-0.999999999987302
  0
VERTEX
  5
7B3
  8
DRAFT
 10
-939.8234929213041
 20
-15.01211853525188
 30
0.0
  0
VERTEX
  5
7B4
  8
DRAFT
 10
-939.8362103514729
 20
-14.86675797811523
 30
0.0
 42
0.4142135183849141
  0
VERTEX
  5
7B5
  8
DRAFT
 10
-939.8700650537554
 20
-14.83835051712286
 30
0.0
  0
VERTEX
  5
7B6
  8
DRAFT
 10
-940.3164112691239
 20
-14.8774007733894
 30
0.0
 42
0.4142135477486937
  0
VERTEX
  5
7B7
  8
DRAFT
 10
-940.3448187349263
 20
-14.91125547452978
 30
0.0
  0
VERTEX
  5
7B8
  8
DRAFT
 10
-940.332101331872
 20
-15.05661605660298
 30
0.0
 42
-1.000000000031731
  0
SEQEND
  5
7B9
  8
DRAFT
  0
POLYLINE
  5
7BA
  8
DRAFT
 66
     1
 10
0.0
 20
0.0
 30
0.0
  0
VERTEX
  5
7BB
  8
DRAFT
 10
-937.9288641871846
 20
-14.03013206987513
 30
0.0
  0
VERTEX
  5
7BC
  8
DRAFT
 10
-937.9040768253739
 20
-14.02796582843202
 30
0.0
 42
-0.1624911418078476
  0
VERTEX
  5
7BD
  8
DRAFT
 10
-937.8283624919411
 20
-14.04561813420255
 30
0.0
 42
-0.0901239739911843
  0
VERTEX
  5
7BE
  8
DRAFT
 10
-937.6937304453104
 20
-14.16634071202775
 30
0.0
 42
-0.2945408183543783
  0
VERTEX
  5
7BF
  8
DRAFT
 10
-937.659807266237
 20
-14.55450890508153
 30
0.0
 42
-0.0931204833715337
  0
VERTEX
  5
7C0
  8
DRAFT
 10
-937.771457707701
 20
-14.69675484596413
 30
0.0
 42
-0.1594425821300965
  0
VERTEX
  5
7C1
  8
DRAFT
 10
-937.8429622760897
 20
-14.72727305177222
 30
0.0
  0
VERTEX
  5
7C2
  8
DRAFT
 10
-937.8677496378617
 20
-14.72943929365868
 30
0.0
  0
SEQEND
  5
7C3
  8
DRAFT
  0
POLYLINE
  5
7C4
  8
DRAFT
 66
     1
 10
0.0
 20
0.0
 30
0.0
 70
     1
  0
VERTEX
  5
7C5
  8
DRAFT
 10
-951.8152248228351
 20
-14.21619782007819
 30
0.0
 42
0.4142135623740211
  0
VERTEX
  5
7C6
  8
DRAFT
 10
-951.8436308716847
 20
-14.18234192858602
 30
0.0
  0
VERTEX
  5
7C7
  8
DRAFT
 10
-952.2610794662122
 20
-14.14580228431983
 30
0.0
 42
0.4142135623647916
  0
VERTEX
  5
7C8
  8
DRAFT
 10
-952.2949353577048
 20
-14.1742083331698
 30
0.0
  0
VERTEX
  5
7C9
  8
DRAFT
 10
-952.3423868170775
 20
-14.71631938600915
 30
0.0
 42
0.4142135623966312
  0
VERTEX
  5
7CA
  8
DRAFT
 10
-952.3139807682273
 20
-14.75017527750105
 30
0.0
  0
VERTEX
  5
7CB
  8
DRAFT
 10
-951.8965321736999
 20
-14.78671492176759
 30
0.0
 42
0.4142135623572767
  0
VERTEX
  5
7CC
  8
DRAFT
 10
-951.8626762822081
 20
-14.7583088729173
 30
0.0
  0
SEQEND
  5
7CD
  8
DRAFT
  0
POLYLINE
  5
7CE
  8
DRAFT
 66
     1
 10
0.0
 20
0.0
 30
0.0
 70
     1
  0
VERTEX
  5
7CF
  8
DRAFT
 10
-950.7109449372377
 20
-15.06010228631299
 30
0.0
  0
VERTEX
  5
7D0
  8
DRAFT
 10
-950.6467576122028
 20
-14.32643780399165
 30
0.0
 42
0.4142135330978639
  0
VERTEX
  5
7D1
  8
DRAFT
 10
-950.6751650764446
 20
-14.29258310298747
 30
0.0
  0
VERTEX
  5
7D2
  8
DRAFT
 10
-951.2012068593114
 20
-14.2465603574369
 30
0.0
 42
0.4142135777781766
  0
VERTEX
  5
7D3
  8
DRAFT
 10
-951.2350615635723
 20
-14.27496782304382
 30
0.0
  0
VERTEX
  5
7D4
  8
DRAFT
 10
-951.2992489236539
 20
-15.00863230554212
 30
0.0
 42
0.9999999999847623
  0
VERTEX
  5
7D5
  8
DRAFT
 10
-951.2594011357297
 20
-15.01211853525186
 30
0.0
  0
VERTEX
  5
7D6
  8
DRAFT
 10
-951.2466837055607
 20
-14.86675797811522
 30
0.0
 42
-0.4142135183908425
  0
VERTEX
  5
7D7
  8
DRAFT
 10
-951.212829003278
 20
-14.83835051712356
 30
0.0
  0
VERTEX
  5
7D8
  8
DRAFT
 10
-950.7664827879097
 20
-14.8774007733894
 30
0.0
 42
-0.4142135477909698
  0
VERTEX
  5
7D9
  8
DRAFT
 10
-950.738075322107
 20
-14.91125547452978
 30
0.0
  0
VERTEX
  5
7DA
  8
DRAFT
 10
-950.7507927251614
 20
-15.056616056603
 30
0.0
 42
1.000000000031377
  0
SEQEND
  5
7DB
  8
DRAFT
  0
POLYLINE
  5
7DC
  8
DRAFT
 66
     1
 10
0.0
 20
0.0
 30
0.0
  0
VERTEX
  5
7DD
  8
DRAFT
 10
-953.1540298698491
 20
-14.03013206987513
 30
0.0
  0
VERTEX
  5
7DE
  8
DRAFT
 10
-953.1788172316595
 20
-14.02796582843211
 30
0.0
 42
0.1624911418146379
  0
VERTEX
  5
7DF
  8
DRAFT
 10
-953.2545315650929
 20
-14.04561813420231
 30
0.0
 42
0.0901239739891107
  0
VERTEX
  5
7E0
  8
DRAFT
 10
-953.3891636117227
 20
-14.16634071202769
 30
0.0
 42
0.2945408183556118
  0
VERTEX
  5
7E1
  8
DRAFT
 10
-953.4230867907968
 20
-14.55450890508147
 30
0.0
 42
0.09312048336973
  0
VERTEX
  5
7E2
  8
DRAFT
 10
-953.3114363493328
 20
-14.69675484596416
 30
0.0
 42
0.1594425821309697
  0
VERTEX
  5
7E3
  8
DRAFT
 10
-953.239931780944
 20
-14.72727305177172
 30
0.0
  0
VERTEX
  5
7E4
  8
DRAFT
 10
-953.2151444191721
 20
-14.72943929365868
 30
0.0
  0
SEQEND
  5
7E5
  8
DRAFT
  0
LINE
  5
7E6
  8
DRAFT
 10
-940.3873901396761
 20
-14.88361062147424
 30
0.0
 11
-940.3719491197959
 21
-15.06010228631299
 31
0.0
  0
LINE
  5
7E7
  8
DRAFT
 10
-950.6955039173575
 20
-14.88361062147424
 30
0.0
 11
-950.7109449372377
 21
-15.06010228631299
 31
0.0
  0
LINE
  5
7E8
  8
DRAFT
 10
-972.8490838101601
 20
-14.88361062147424
 30
0.0
 11
-972.8645248300403
 21
-15.06010228631299
 31
0.0
  0
POLYLINE
  5
7E9
  8
DRAFT
 66
     1
 10
0.0
 20
0.0
 30
0.0
  0
VERTEX
  5
7EA
  8
DRAFT
 10
-959.348908336239
 20
-24.22154147618605
 30
0.0
 42
-0.4141732650308344
  0
VERTEX
  5
7EB
  8
DRAFT
 10
-958.9426890367532
 20
-24.56241855777163
 30
0.0
  0
VERTEX
  5
7EC
  8
DRAFT
 10
-958.8772611203165
 20
-25.30990234717597
 30
0.0
 42
-0.4142489508383207
  0
VERTEX
  5
7ED
  8
DRAFT
 10
-959.218178842525
 20
-25.71617699312958
 30
0.0
  0
SEQEND
  5
7EE
  8
DRAFT
  0
POLYLINE
  5
7EF
  8
DRAFT
 66
     1
 10
0.0
 20
0.0
 30
0.0
  0
VERTEX
  5
7F0
  8
DRAFT
 10
-961.004607392443
 20
-24.36623673420825
 30
0.0
 42
-0.2214552436106079
  0
VERTEX
  5
7F1
  8
DRAFT
 10
-960.9054087503242
 20
-24.40230156672198
 30
0.0
  0
VERTEX
  5
7F2
  8
DRAFT
 10
-960.6045670972703
 20
-24.70265194223071
 30
0.0
 42
0.2214558604976121
  0
VERTEX
  5
7F3
  8
DRAFT
 10
-960.5549676583637
 20
-24.72068442436897
 30
0.0
  0
VERTEX
  5
7F4
  8
DRAFT
 10
-960.5101012866353
 20
-24.71676341678299
 30
0.0
 42
-0.1622776624629228
  0
VERTEX
  5
7F5
  8
DRAFT
 10
-960.4716554101315
 20
-24.72595115980659
 30
0.0
  0
VERTEX
  5
7F6
  8
DRAFT
 10
-960.4628095836397
 20
-24.73145192028685
 30
0.0
 42
1.989253265116178
  0
VERTEX
  5
7F7
  8
DRAFT
 10
-960.4710816765217
 20
-24.63184143949373
 30
0.0
  0
VERTEX
  5
7F8
  8
DRAFT
 10
-960.4791070265683
 20
-24.63895986028273
 30
0.0
 42
-0.1609716664670462
  0
VERTEX
  5
7F9
  8
DRAFT
 10
-960.5151388718348
 20
-24.65446544743209
 30
0.0
  0
VERTEX
  5
7FA
  8
DRAFT
 10
-960.53393568051
 20
-24.6561081572516
 30
0.0
 42
-0.226170571401412
  0
VERTEX
  5
7FB
  8
DRAFT
 10
-960.5843222946738
 20
-24.63727554075014
 30
0.0
  0
VERTEX
  5
7FC
  8
DRAFT
 10
-960.676355962027
 20
-24.5420309326832
 30
0.0
 42
-0.6310947064787352
  0
VERTEX
  5
7FD
  8
DRAFT
 10
-960.5973479340204
 20
-24.33064541572693
 30
0.0
  0
SEQEND
  5
7FE
  8
DRAFT
  0
POLYLINE
  5
7FF
  8
DRAFT
 66
     1
 10
0.0
 20
0.0
 30
0.0
  0
VERTEX
  5
800
  8
DRAFT
 10
-960.0128517424596
 20
-24.2795649811916
 30
0.0
 42
-0.2214556596410946
  0
VERTEX
  5
801
  8
DRAFT
 10
-959.9136529600142
 20
-24.31562995380313
 30
0.0
  0
VERTEX
  5
802
  8
DRAFT
 10
-959.6128233845864
 20
-24.6159692242781
 30
0.0
 42
0.2214558604994455
  0
VERTEX
  5
803
  8
DRAFT
 10
-959.5632239456804
 20
-24.63400170641669
 30
0.0
  0
VERTEX
  5
804
  8
DRAFT
 10
-959.518357573952
 20
-24.6300806988308
 30
0.0
 42
-0.1622776624722611
  0
VERTEX
  5
805
  8
DRAFT
 10
-959.4799116974477
 20
-24.63926844185446
 30
0.0
  0
VERTEX
  5
806
  8
DRAFT
 10
-959.4710658709569
 20
-24.64476920233515
 30
0.0
 42
1.989253265102081
  0
VERTEX
  5
807
  8
DRAFT
 10
-959.4793379638385
 20
-24.54515872154114
 30
0.0
  0
VERTEX
  5
808
  8
DRAFT
 10
-959.4873633138848
 20
-24.5522771423306
 30
0.0
 42
-0.1609716664675429
  0
VERTEX
  5
809
  8
DRAFT
 10
-959.5233951591513
 20
-24.56778272947958
 30
0.0
  0
VERTEX
  5
80A
  8
DRAFT
 10
-959.5421919678265
 20
-24.56942543929943
 30
0.0
 42
-0.226170571414556
  0
VERTEX
  5
80B
  8
DRAFT
 10
-959.5925785819908
 20
-24.55059282279806
 30
0.0
  0
VERTEX
  5
80C
  8
DRAFT
 10
-959.6846015495603
 20
-24.45535928781577
 30
0.0
 42
-0.6310947064804031
  0
VERTEX
  5
80D
  8
DRAFT
 10
-959.6055935215545
 20
-24.243973770859
 30
0.0
  0
SEQEND
  5
80E
  8
DRAFT
  0
POLYLINE
  5
80F
  8
DRAFT
 66
     1
 10
0.0
 20
0.0
 30
0.0
  0
VERTEX
  5
810
  8
DRAFT
 10
-959.8821131370646
 20
-25.7742109166794
 30
0.0
 42
0.2215234308506976
  0
VERTEX
  5
811
  8
DRAFT
 10
-959.7906562659203
 20
-25.72145768600632
 30
0.0
  0
VERTEX
  5
812
  8
DRAFT
 10
-959.5465291352613
 20
-25.37335046763951
 30
0.0
 42
-0.2214558605077491
  0
VERTEX
  5
813
  8
DRAFT
 10
-959.5008167409749
 20
-25.34697525653999
 30
0.0
  0
VERTEX
  5
814
  8
DRAFT
 10
-959.4559514438697
 20
-25.34304197188145
 30
0.0
 42
0.1622776624690405
  0
VERTEX
  5
815
  8
DRAFT
 10
-959.4196863992366
 20
-25.32731471592887
 30
0.0
  0
VERTEX
  5
816
  8
DRAFT
 10
-959.4119307404562
 20
-25.32036081277617
 30
0.0
 42
-2.013858596082909
  0
VERTEX
  5
817
  8
DRAFT
 10
-959.4027716424994
 20
-25.41989365323145
 30
0.0
  0
VERTEX
  5
818
  8
DRAFT
 10
-959.4119116408797
 20
-25.41427773055484
 30
0.0
 42
0.160971666467764
  0
VERTEX
  5
819
  8
DRAFT
 10
-959.4500893535569
 20
-25.40526777157137
 30
0.0
  0
VERTEX
  5
81A
  8
DRAFT
 10
-959.4688857120175
 20
-25.40691562488238
 30
0.0
 42
0.2261705714055996
  0
VERTEX
  5
81B
  8
DRAFT
 10
-959.5152343032393
 20
-25.43421555936976
 30
0.0
  0
VERTEX
  5
81C
  8
DRAFT
 10
-959.5894372980781
 20
-25.54417243932256
 30
0.0
 42
0.6310043784631574
  0
VERTEX
  5
81D
  8
DRAFT
 10
-959.4749387531667
 20
-25.73862015527325
 30
0.0
  0
SEQEND
  5
81E
  8
DRAFT
  0
POLYLINE
  5
81F
  8
DRAFT
 66
     1
 10
0.0
 20
0.0
 30
0.0
  0
VERTEX
  5
820
  8
DRAFT
 10
-960.874733196847
 20
-25.89049839567303
 30
0.0
 42
0.173823154941506
  0
VERTEX
  5
821
  8
DRAFT
 10
-960.8058276033001
 20
-25.84182532087459
 30
0.0
  0
VERTEX
  5
822
  8
DRAFT
 10
-960.5382510472859
 20
-25.46028224807356
 30
0.0
 42
-0.2214558604948817
  0
VERTEX
  5
823
  8
DRAFT
 10
-960.4925386529994
 20
-25.43390703697398
 30
0.0
  0
VERTEX
  5
824
  8
DRAFT
 10
-960.4476733558943
 20
-25.42997375231543
 30
0.0
 42
0.1622776624590806
  0
VERTEX
  5
825
  8
DRAFT
 10
-960.4114083112614
 20
-25.41424649636246
 30
0.0
  0
VERTEX
  5
826
  8
DRAFT
 10
-960.4036526524808
 20
-25.40729259321003
 30
0.0
 42
-2.013858596105812
  0
VERTEX
  5
827
  8
DRAFT
 10
-960.394493554524
 20
-25.50682543366584
 30
0.0
  0
VERTEX
  5
828
  8
DRAFT
 10
-960.403633552904
 20
-25.50120951098865
 30
0.0
 42
0.1609716664670213
  0
VERTEX
  5
829
  8
DRAFT
 10
-960.4418112655819
 20
-25.492199552005
 30
0.0
  0
VERTEX
  5
82A
  8
DRAFT
 10
-960.460607624042
 20
-25.4938474053162
 30
0.0
 42
0.2261705714095706
  0
VERTEX
  5
82B
  8
DRAFT
 10
-960.5069562152634
 20
-25.52114733980363
 30
0.0
  0
VERTEX
  5
82C
  8
DRAFT
 10
-960.5809826331129
 20
-25.63084256111404
 30
0.0
 42
0.6310043784595916
  0
VERTEX
  5
82D
  8
DRAFT
 10
-960.4664840882019
 20
-25.82529027706482
 30
0.0
  0
SEQEND
  5
82E
  8
DRAFT
  0
POLYLINE
  5
82F
  8
DRAFT
 66
     1
 10
0.0
 20
0.0
 30
0.0
 70
     1
  0
VERTEX
  5
830
  8
DRAFT
 10
-961.4212491270264
 20
-24.87225880644956
 30
0.0
 42
-0.4142135623728602
  0
VERTEX
  5
831
  8
DRAFT
 10
-961.3928430781764
 20
-24.83840291495789
 30
0.0
  0
VERTEX
  5
832
  8
DRAFT
 10
-960.9753944836493
 20
-24.80186327069116
 30
0.0
 42
-0.414213562369805
  0
VERTEX
  5
833
  8
DRAFT
 10
-960.9415385921559
 20
-24.83026931954116
 30
0.0
  0
VERTEX
  5
834
  8
DRAFT
 10
-960.8940871327839
 20
-25.37238037238053
 30
0.0
 42
-0.4142135623716175
  0
VERTEX
  5
835
  8
DRAFT
 10
-960.9224931816339
 20
-25.40623626387267
 30
0.0
  0
VERTEX
  5
836
  8
DRAFT
 10
-961.3399417761614
 20
-25.442775908139
 30
0.0
 42
-0.4142135623534522
  0
VERTEX
  5
837
  8
DRAFT
 10
-961.3737976676534
 20
-25.41436985928868
 30
0.0
  0
SEQEND
  5
838
  8
DRAFT
  0
POLYLINE
  5
839
  8
DRAFT
 66
     1
 10
0.0
 20
0.0
 30
0.0
 70
     1
  0
VERTEX
  5
83A
  8
DRAFT
 10
-962.5255290126236
 20
-25.71616327268436
 30
0.0
  0
VERTEX
  5
83B
  8
DRAFT
 10
-962.5897163376585
 20
-24.98249879036302
 30
0.0
 42
-0.4142135331027884
  0
VERTEX
  5
83C
  8
DRAFT
 10
-962.5613088734169
 20
-24.94864408935895
 30
0.0
  0
VERTEX
  5
83D
  8
DRAFT
 10
-962.03526709055
 20
-24.90262134380833
 30
0.0
 42
-0.414213577791177
  0
VERTEX
  5
83E
  8
DRAFT
 10
-962.0014123862901
 20
-24.93102880941528
 30
0.0
  0
VERTEX
  5
83F
  8
DRAFT
 10
-961.9372250262072
 20
-25.66469329191347
 30
0.0
 42
-1.000000000005123
  0
VERTEX
  5
840
  8
DRAFT
 10
-961.9770728141309
 20
-25.66817952162323
 30
0.0
  0
VERTEX
  5
841
  8
DRAFT
 10
-961.9897902443006
 20
-25.5228189644866
 30
0.0
 42
0.4142135183778475
  0
VERTEX
  5
842
  8
DRAFT
 10
-962.0236449465831
 20
-25.49441150349452
 30
0.0
  0
VERTEX
  5
843
  8
DRAFT
 10
-962.4699911619516
 20
-25.53346175976078
 30
0.0
 42
0.4142135477802028
  0
VERTEX
  5
844
  8
DRAFT
 10
-962.4983986277551
 20
-25.56731646090121
 30
0.0
  0
VERTEX
  5
845
  8
DRAFT
 10
-962.4856812246996
 20
-25.71267704297436
 30
0.0
 42
-1.000000000008202
  0
SEQEND
  5
846
  8
DRAFT
  0
POLYLINE
  5
847
  8
DRAFT
 66
     1
 10
0.0
 20
0.0
 30
0.0
  0
VERTEX
  5
848
  8
DRAFT
 10
-960.0824440800122
 20
-24.6861930562465
 30
0.0
  0
VERTEX
  5
849
  8
DRAFT
 10
-960.0576567182015
 20
-24.68402681480351
 30
0.0
 42
-0.1624911418063801
  0
VERTEX
  5
84A
  8
DRAFT
 10
-959.9819423847682
 20
-24.70167912057375
 30
0.0
 42
-0.0901239739959738
  0
VERTEX
  5
84B
  8
DRAFT
 10
-959.8473103381384
 20
-24.82240169839909
 30
0.0
 42
-0.2945408183496271
  0
VERTEX
  5
84C
  8
DRAFT
 10
-959.8133871590643
 20
-25.21056989145281
 30
0.0
 42
-0.0931204833710055
  0
VERTEX
  5
84D
  8
DRAFT
 10
-959.9250376005284
 20
-25.35281583233557
 30
0.0
 42
-0.1594425821237071
  0
VERTEX
  5
84E
  8
DRAFT
 10
-959.9965421689174
 20
-25.38333403814352
 30
0.0
  0
VERTEX
  5
84F
  8
DRAFT
 10
-960.0213295306894
 20
-25.38550028003005
 30
0.0
  0
SEQEND
  5
850
  8
DRAFT
  0
LINE
  5
851
  8
DRAFT
 10
-962.5409700325038
 20
-25.53967160784561
 30
0.0
 11
-962.5255290126236
 21
-25.71616327268436
 31
0.0
  0
POLYLINE
  5
852
  8
DRAFT
 66
     1
 10
0.0
 20
0.0
 30
0.0
 70
     1
  0
VERTEX
  5
853
  8
DRAFT
 10
-954.4355717473953
 20
-24.17364785162038
 30
0.0
 42
0.0436214061428549
  0
VERTEX
  5
854
  8
DRAFT
 10
-958.8009022024411
 20
-24.17364785162038
 30
0.0
  0
VERTEX
  5
855
  8
DRAFT
 10
-965.5123616938217
 20
-24.76020414911821
 30
0.0
 42
-0.0436214061426252
  0
VERTEX
  5
856
  8
DRAFT
 10
-969.877692148867
 20
-24.76020414911821
 30
0.0
  0
VERTEX
  5
857
  8
DRAFT
 10
-974.385446450246
 20
-24.36624339044092
 30
0.0
 42
0.2214552436119084
  0
VERTEX
  5
858
  8
DRAFT
 10
-974.4846450923645
 20
-24.40230822295472
 30
0.0
  0
VERTEX
  5
859
  8
DRAFT
 10
-974.7854867454187
 20
-24.70265859846322
 30
0.0
 42
-0.2214558604909698
  0
VERTEX
  5
85A
  8
DRAFT
 10
-974.8350861843248
 20
-24.72069108060197
 30
0.0
  0
VERTEX
  5
85B
  8
DRAFT
 10
-974.8799525560532
 20
-24.71677007301579
 30
0.0
 42
0.1622776624654188
  0
VERTEX
  5
85C
  8
DRAFT
 10
-974.9183984325571
 20
-24.72595781603955
 30
0.0
  0
VERTEX
  5
85D
  8
DRAFT
 10
-974.9272442590485
 20
-24.73145857651986
 30
0.0
 42
-1.989253265082201
  0
VERTEX
  5
85E
  8
DRAFT
 10
-974.9189721661675
 20
-24.63184809572681
 30
0.0
  0
VERTEX
  5
85F
  8
DRAFT
 10
-974.9109468161205
 20
-24.6389665165157
 30
0.0
 42
0.1609716664759646
  0
VERTEX
  5
860
  8
DRAFT
 10
-974.8749149708538
 20
-24.65447210366488
 30
0.0
  0
VERTEX
  5
861
  8
DRAFT
 10
-974.8561181621787
 20
-24.65611481348443
 30
0.0
 42
0.226170571408108
  0
VERTEX
  5
862
  8
DRAFT
 10
-974.8057315480145
 20
-24.63728219698329
 30
0.0
  0
VERTEX
  5
863
  8
DRAFT
 10
-974.7136978806622
 20
-24.54203758891576
 30
0.0
 42
0.6310947064823618
  0
VERTEX
  5
864
  8
DRAFT
 10
-974.792705908668
 20
-24.3306520719599
 30
0.0
  0
VERTEX
  5
865
  8
DRAFT
 10
-975.3772021002292
 20
-24.2795716374242
 30
0.0
 42
0.2214556596468716
  0
VERTEX
  5
866
  8
DRAFT
 10
-975.4764008826747
 20
-24.31563661003616
 30
0.0
  0
VERTEX
  5
867
  8
DRAFT
 10
-975.7772304581022
 20
-24.61597588051106
 30
0.0
 42
-0.2214558604982864
  0
VERTEX
  5
868
  8
DRAFT
 10
-975.8268298970083
 20
-24.63400836264964
 30
0.0
  0
VERTEX
  5
869
  8
DRAFT
 10
-975.8716962687367
 20
-24.6300873550636
 30
0.0
 42
0.1622776624700188
  0
VERTEX
  5
86A
  8
DRAFT
 10
-975.910142145241
 20
-24.63927509808711
 30
0.0
  0
VERTEX
  5
86B
  8
DRAFT
 10
-975.918987971732
 20
-24.64477585856795
 30
0.0
 42
-1.989253265150336
  0
VERTEX
  5
86C
  8
DRAFT
 10
-975.9107158788505
 20
-24.54516537777435
 30
0.0
  0
VERTEX
  5
86D
  8
DRAFT
 10
-975.9026905288042
 20
-24.5522837985635
 30
0.0
 42
0.1609716664737784
  0
VERTEX
  5
86E
  8
DRAFT
 10
-975.8666586835373
 20
-24.56778938571274
 30
0.0
  0
VERTEX
  5
86F
  8
DRAFT
 10
-975.8478618748622
 20
-24.56943209553252
 30
0.0
 42
0.2261705714002052
  0
VERTEX
  5
870
  8
DRAFT
 10
-975.7974752606976
 20
-24.55059947903119
 30
0.0
  0
VERTEX
  5
871
  8
DRAFT
 10
-975.7054522931285
 20
-24.45536594404858
 30
0.0
 42
0.6310947064847571
  0
VERTEX
  5
872
  8
DRAFT
 10
-975.7844603211342
 20
-24.24398042709266
 30
0.0
  0
VERTEX
  5
873
  8
DRAFT
 10
-976.0411455064498
 20
-24.22154813241909
 30
0.0
 42
0.4141732650311036
  0
VERTEX
  5
874
  8
DRAFT
 10
-976.4473648059352
 20
-24.56242521400457
 30
0.0
  0
VERTEX
  5
875
  8
DRAFT
 10
-976.5127927223724
 20
-25.3099090034089
 30
0.0
 42
0.4142489508368934
  0
VERTEX
  5
876
  8
DRAFT
 10
-976.1718750001635
 20
-25.71618364936302
 30
0.0
  0
VERTEX
  5
877
  8
DRAFT
 10
-975.9151150895218
 20
-25.73862681150625
 30
0.0
 42
0.6310043784684927
  0
VERTEX
  5
878
  8
DRAFT
 10
-975.8006165446109
 20
-25.54417909555549
 30
0.0
  0
VERTEX
  5
879
  8
DRAFT
 10
-975.8748195394497
 20
-25.43422221560278
 30
0.0
 42
0.2261705714073854
  0
VERTEX
  5
87A
  8
DRAFT
 10
-975.9211681306715
 20
-25.40692228111521
 30
0.0
  0
VERTEX
  5
87B
  8
DRAFT
 10
-975.9399644891322
 20
-25.40527442780472
 30
0.0
 42
0.1609716664818611
  0
VERTEX
  5
87C
  8
DRAFT
 10
-975.9781422018091
 20
-25.41428438678769
 30
0.0
  0
VERTEX
  5
87D
  8
DRAFT
 10
-975.9872822001892
 20
-25.41990030946487
 30
0.0
 42
-1.9980671704847
  0
VERTEX
  5
87E
  8
DRAFT
 10
-975.978123102232
 20
-25.32036746900866
 30
0.0
  0
VERTEX
  5
87F
  8
DRAFT
 10
-975.9703674434518
 20
-25.32732137216138
 30
0.0
 42
0.1622776624620227
  0
VERTEX
  5
880
  8
DRAFT
 10
-975.934102398819
 20
-25.3430486281145
 30
0.0
  0
VERTEX
  5
881
  8
DRAFT
 10
-975.8892371017142
 20
-25.346981912773
 30
0.0
 42
-0.2214558604996511
  0
VERTEX
  5
882
  8
DRAFT
 10
-975.8435247074273
 20
-25.37335712387233
 30
0.0
  0
VERTEX
  5
883
  8
DRAFT
 10
-975.5993975767683
 20
-25.72146434223885
 30
0.0
 42
0.2215234308543567
  0
VERTEX
  5
884
  8
DRAFT
 10
-975.5079407056242
 20
-25.77421757291247
 30
0.0
  0
VERTEX
  5
885
  8
DRAFT
 10
-974.9235697544871
 20
-25.82529693329789
 30
0.0
 42
0.6310043784595497
  0
VERTEX
  5
886
  8
DRAFT
 10
-974.8090712095762
 20
-25.63084921734709
 30
0.0
  0
VERTEX
  5
887
  8
DRAFT
 10
-974.8830976274256
 20
-25.52115399603668
 30
0.0
 42
0.2261705714025299
  0
VERTEX
  5
888
  8
DRAFT
 10
-974.929446218647
 20
-25.49385406154904
 30
0.0
  0
VERTEX
  5
889
  8
DRAFT
 10
-974.9482425771075
 20
-25.49220620823824
 30
0.0
 42
0.1609716664767405
  0
VERTEX
  5
88A
  8
DRAFT
 10
-974.9864202897852
 20
-25.50121616722168
 30
0.0
  0
VERTEX
  5
88B
  8
DRAFT
 10
-974.9955602881649
 20
-25.50683208989886
 30
0.0
 42
-1.998067170514439
  0
VERTEX
  5
88C
  8
DRAFT
 10
-974.9864011902082
 20
-25.40729924944324
 30
0.0
  0
VERTEX
  5
88D
  8
DRAFT
 10
-974.9786455314274
 20
-25.41425315259569
 30
0.0
 42
0.1622776624706671
  0
VERTEX
  5
88E
  8
DRAFT
 10
-974.9423804867947
 20
-25.42998040854826
 30
0.0
  0
VERTEX
  5
88F
  8
DRAFT
 10
-974.8975151896898
 20
-25.43391369320704
 30
0.0
 42
-0.2214558604818603
  0
VERTEX
  5
890
  8
DRAFT
 10
-974.8518027954032
 20
-25.46028890430648
 30
0.0
  0
VERTEX
  5
891
  8
DRAFT
 10
-974.5842262393887
 20
-25.84183197710738
 30
0.0
 42
0.1738231549359465
  0
VERTEX
  5
892
  8
DRAFT
 10
-974.5153206458423
 20
-25.89050505190566
 30
0.0
 42
-0.3369513388470867
  0
VERTEX
  5
893
  8
DRAFT
 10
-973.2334218945449
 20
-27.57673790094872
 30
0.0
  0
VERTEX
  5
894
  8
DRAFT
 10
-973.2334218945451
 20
-32.01318174239419
 30
0.0
 42
0.3889014466557972
  0
VERTEX
  5
895
  8
DRAFT
 10
-971.6358068538191
 20
-33.75653449619579
 30
0.0
  0
VERTEX
  5
896
  8
DRAFT
 10
-969.8777566244853
 20
-33.91020414911863
 30
0.0
 42
0.0436214070618396
  0
VERTEX
  5
897
  8
DRAFT
 10
-965.5122972182037
 20
-33.91020414911863
 30
0.0
  0
VERTEX
  5
898
  8
DRAFT
 10
-963.7542469888697
 20
-33.7565344961961
 30
0.0
 42
0.3889014466554657
  0
VERTEX
  5
899
  8
DRAFT
 10
-962.1566319481433
 20
-32.01318174239419
 30
0.0
  0
VERTEX
  5
89A
  8
DRAFT
 10
-962.1566319481437
 20
-27.57673790094872
 30
0.0
 42
-0.3889014466557529
  0
VERTEX
  5
89B
  8
DRAFT
 10
-960.5590169074178
 20
-25.83338514714654
 30
0.0
  0
VERTEX
  5
89C
  8
DRAFT
 10
-958.800966678084
 20
-25.67971549422429
 30
0.0
 42
-0.0436214070618936
  0
VERTEX
  5
89D
  8
DRAFT
 10
-954.4355072718022
 20
-25.67971549422429
 30
0.0
  0
VERTEX
  5
89E
  8
DRAFT
 10
-952.6774570424682
 20
-25.83338514714688
 30
0.0
 42
-0.3889014466555144
  0
VERTEX
  5
89F
  8
DRAFT
 10
-951.0798420017425
 20
-27.57673790094872
 30
0.0
  0
VERTEX
  5
8A0
  8
DRAFT
 10
-951.0798420017422
 20
-32.01318174239419
 30
0.0
 42
0.3889014466556089
  0
VERTEX
  5
8A1
  8
DRAFT
 10
-949.4822269610162
 20
-33.7565344961958
 30
0.0
  0
VERTEX
  5
8A2
  8
DRAFT
 10
-947.7241767316825
 20
-33.91020414911866
 30
0.0
 42
0.0436214070618036
  0
VERTEX
  5
8A3
  8
DRAFT
 10
-943.3587173254004
 20
-33.91020414911868
 30
0.0
  0
VERTEX
  5
8A4
  8
DRAFT
 10
-941.6006670960661
 20
-33.75653449619598
 30
0.0
 42
0.388901446655431
  0
VERTEX
  5
8A5
  8
DRAFT
 10
-940.00305205534
 20
-32.01318174239419
 30
0.0
  0
VERTEX
  5
8A6
  8
DRAFT
 10
-940.0030520553407
 20
-27.57673790094872
 30
0.0
 42
-0.336951338857404
  0
VERTEX
  5
8A7
  8
DRAFT
 10
-938.7211533040356
 20
-25.89050505193734
 30
0.0
 42
0.1738231547474498
  0
VERTEX
  5
8A8
  8
DRAFT
 10
-938.6522477104977
 20
-25.84183197710735
 30
0.0
  0
VERTEX
  5
8A9
  8
DRAFT
 10
-938.3846711544832
 20
-25.46028890430646
 30
0.0
 42
-0.2214558604930681
  0
VERTEX
  5
8AA
  8
DRAFT
 10
-938.3389587601969
 20
-25.43391369320697
 30
0.0
  0
VERTEX
  5
8AB
  8
DRAFT
 10
-938.2940934630917
 20
-25.42998040854847
 30
0.0
 42
0.1622776624623931
  0
VERTEX
  5
8AC
  8
DRAFT
 10
-938.2578284184588
 20
-25.41425315259559
 30
0.0
  0
VERTEX
  5
8AD
  8
DRAFT
 10
-938.2500727596782
 20
-25.40729924944335
 30
0.0
 42
-1.989253265155436
  0
VERTEX
  5
8AE
  8
DRAFT
 10
-938.2409136617214
 20
-25.50683208989873
 30
0.0
  0
VERTEX
  5
8AF
  8
DRAFT
 10
-938.2500536601013
 20
-25.50121616722167
 30
0.0
 42
0.1609716664716545
  0
VERTEX
  5
8B0
  8
DRAFT
 10
-938.2882313727791
 20
-25.49220620823839
 30
0.0
  0
VERTEX
  5
8B1
  8
DRAFT
 10
-938.3070277312397
 20
-25.49385406154903
 30
0.0
 42
0.2261705714030665
  0
VERTEX
  5
8B2
  8
DRAFT
 10
-938.3533763224614
 20
-25.52115399603659
 30
0.0
  0
VERTEX
  5
8B3
  8
DRAFT
 10
-938.4274027403095
 20
-25.63084921734728
 30
0.0
 42
0.6310043784724921
  0
VERTEX
  5
8B4
  8
DRAFT
 10
-938.3129041953994
 20
-25.8252969332974
 30
0.0
  0
VERTEX
  5
8B5
  8
DRAFT
 10
-937.728533244262
 20
-25.77421757291237
 30
0.0
 42
0.2215234308488935
  0
VERTEX
  5
8B6
  8
DRAFT
 10
-937.6370763731179
 20
-25.721464342239
 30
0.0
  0
VERTEX
  5
8B7
  8
DRAFT
 10
-937.3929492424587
 20
-25.37335712387235
 30
0.0
 42
-0.2214558604885437
  0
VERTEX
  5
8B8
  8
DRAFT
 10
-937.3472368481723
 20
-25.34698191277295
 30
0.0
  0
VERTEX
  5
8B9
  8
DRAFT
 10
-937.3023715510674
 20
-25.34304862811467
 30
0.0
 42
0.162277662470322
  0
VERTEX
  5
8BA
  8
DRAFT
 10
-937.2661065064344
 20
-25.32732137216171
 30
0.0
  0
VERTEX
  5
8BB
  8
DRAFT
 10
-937.2583508476539
 20
-25.32036746900869
 30
0.0
 42
-1.989253265099657
  0
VERTEX
  5
8BC
  8
DRAFT
 10
-937.2491917496972
 20
-25.41990030946474
 30
0.0
  0
VERTEX
  5
8BD
  8
DRAFT
 10
-937.2583317480772
 20
-25.41428438678791
 30
0.0
 42
0.1609716664667625
  0
VERTEX
  5
8BE
  8
DRAFT
 10
-937.2965094607544
 20
-25.40527442780438
 30
0.0
  0
VERTEX
  5
8BF
  8
DRAFT
 10
-937.3153058192149
 20
-25.40692228111555
 30
0.0
 42
0.2261705713986804
  0
VERTEX
  5
8C0
  8
DRAFT
 10
-937.3616544104367
 20
-25.43422221560278
 30
0.0
  0
VERTEX
  5
8C1
  8
DRAFT
 10
-937.4358574052757
 20
-25.54417909555566
 30
0.0
 42
0.631004378464693
  0
VERTEX
  5
8C2
  8
DRAFT
 10
-937.3213588603644
 20
-25.73862681150602
 30
0.0
  0
VERTEX
  5
8C3
  8
DRAFT
 10
-937.0645989497227
 20
-25.71618364936273
 30
0.0
 42
0.4142489508342833
  0
VERTEX
  5
8C4
  8
DRAFT
 10
-936.7236812275141
 20
-25.30990900340888
 30
0.0
  0
VERTEX
  5
8C5
  8
DRAFT
 10
-936.7891091439511
 20
-24.56242521400457
 30
0.0
 42
0.4141732650304241
  0
VERTEX
  5
8C6
  8
DRAFT
 10
-937.1953284434362
 20
-24.22154813241885
 30
0.0
  0
VERTEX
  5
8C7
  8
DRAFT
 10
-937.4520136287517
 20
-24.24398042709208
 30
0.0
 42
0.6310947064830051
  0
VERTEX
  5
8C8
  8
DRAFT
 10
-937.5310216567578
 20
-24.45536594404869
 30
0.0
  0
VERTEX
  5
8C9
  8
DRAFT
 10
-937.4389986891885
 20
-24.55059947903107
 30
0.0
 42
0.2261705714135479
  0
VERTEX
  5
8CA
  8
DRAFT
 10
-937.3886120750242
 20
-24.56943209553222
 30
0.0
  0
VERTEX
  5
8CB
  8
DRAFT
 10
-937.3698152663493
 20
-24.56778938571253
 30
0.0
 42
0.1609716664641494
  0
VERTEX
  5
8CC
  8
DRAFT
 10
-937.3337834210822
 20
-24.5522837985635
 30
0.0
  0
VERTEX
  5
8CD
  8
DRAFT
 10
-937.3257580710357
 20
-24.54516537777413
 30
0.0
 42
-1.998067170461921
  0
VERTEX
  5
8CE
  8
DRAFT
 10
-937.3174859781542
 20
-24.64477585856785
 30
0.0
  0
VERTEX
  5
8CF
  8
DRAFT
 10
-937.3263318046456
 20
-24.6392750980873
 30
0.0
 42
0.1622776624765819
  0
VERTEX
  5
8D0
  8
DRAFT
 10
-937.3647776811495
 20
-24.63008735506358
 30
0.0
  0
VERTEX
  5
8D1
  8
DRAFT
 10
-937.4096440528779
 20
-24.6340083626495
 30
0.0
 42
-0.2214558604925367
  0
VERTEX
  5
8D2
  8
DRAFT
 10
-937.459243491784
 20
-24.61597588051107
 30
0.0
  0
VERTEX
  5
8D3
  8
DRAFT
 10
-937.7600730672119
 20
-24.31563661003622
 30
0.0
 42
0.2214556596386228
  0
VERTEX
  5
8D4
  8
DRAFT
 10
-937.859271849657
 20
-24.27957163742463
 30
0.0
  0
VERTEX
  5
8D5
  8
DRAFT
 10
-938.4437680412177
 20
-24.3306520719597
 30
0.0
 42
0.6310947064793461
  0
VERTEX
  5
8D6
  8
DRAFT
 10
-938.522776069224
 20
-24.542037588916
 30
0.0
  0
VERTEX
  5
8D7
  8
DRAFT
 10
-938.430742401872
 20
-24.63728219698343
 30
0.0
 42
0.2261705714120431
  0
VERTEX
  5
8D8
  8
DRAFT
 10
-938.3803557877077
 20
-24.65611481348465
 30
0.0
  0
VERTEX
  5
8D9
  8
DRAFT
 10
-938.3615589790325
 20
-24.65447210366507
 30
0.0
 42
0.1609716664744598
  0
VERTEX
  5
8DA
  8
DRAFT
 10
-938.3255271337657
 20
-24.63896651651574
 30
0.0
  0
VERTEX
  5
8DB
  8
DRAFT
 10
-938.3175017837195
 20
-24.63184809572628
 30
0.0
 42
-1.998067170459798
  0
VERTEX
  5
8DC
  8
DRAFT
 10
-938.3092296908376
 20
-24.73145857652003
 30
0.0
  0
VERTEX
  5
8DD
  8
DRAFT
 10
-938.3180755173286
 20
-24.7259578160394
 30
0.0
 42
0.1622776624710142
  0
VERTEX
  5
8DE
  8
DRAFT
 10
-938.3565213938328
 20
-24.71677007301588
 30
0.0
  0
VERTEX
  5
8DF
  8
DRAFT
 10
-938.4013877655614
 20
-24.72069108060206
 30
0.0
 42
-0.2214558604953317
  0
VERTEX
  5
8E0
  8
DRAFT
 10
-938.4509872044675
 20
-24.70265859846331
 30
0.0
  0
VERTEX
  5
8E1
  8
DRAFT
 10
-938.7518288575214
 20
-24.40230822295476
 30
0.0
 42
0.2214552436131039
  0
VERTEX
  5
8E2
  8
DRAFT
 10
-938.8510274996402
 20
-24.36624339044099
 30
0.0
  0
VERTEX
  5
8E3
  8
DRAFT
 10
-943.3587818010192
 20
-24.76020414911817
 30
0.0
 42
-0.0436214061426265
  0
VERTEX
  5
8E4
  8
DRAFT
 10
-947.7241122560649
 20
-24.76020414911817
 30
0.0
  0
SEQEND
  5
8E5
  8
DRAFT
  0
POLYLINE
  5
8E6
  8
DRAFT
 66
     1
 10
0.0
 20
0.0
 30
0.0
  0
VERTEX
  5
8E7
  8
DRAFT
 10
-953.6308804283317
 20
-24.24398042709252
 30
0.0
 42
-0.6310947064835424
  0
VERTEX
  5
8E8
  8
DRAFT
 10
-953.5518724003258
 20
-24.45536594404861
 30
0.0
  0
VERTEX
  5
8E9
  8
DRAFT
 10
-953.6438953678953
 20
-24.55059947903104
 30
0.0
 42
-0.2261705714067437
  0
VERTEX
  5
8EA
  8
DRAFT
 10
-953.6942819820595
 20
-24.56943209553234
 30
0.0
  0
VERTEX
  5
8EB
  8
DRAFT
 10
-953.7130787907347
 20
-24.56778938571261
 30
0.0
 42
-0.1609716664744138
  0
VERTEX
  5
8EC
  8
DRAFT
 10
-953.7491106360012
 20
-24.5522837985635
 30
0.0
  0
VERTEX
  5
8ED
  8
DRAFT
 10
-953.7571359860476
 20
-24.5451653777743
 30
0.0
 42
2.022848026569878
  0
VERTEX
  5
8EE
  8
DRAFT
 10
-953.7654080789297
 20
-24.64477585856747
 30
0.0
  0
VERTEX
  5
8EF
  8
DRAFT
 10
-953.7565622524385
 20
-24.63927509808729
 30
0.0
 42
-0.1622776624693534
  0
VERTEX
  5
8F0
  8
DRAFT
 10
-953.7181163759342
 20
-24.63008735506389
 30
0.0
  0
VERTEX
  5
8F1
  8
DRAFT
 10
-953.6732500042058
 20
-24.63400836264967
 30
0.0
 42
0.2214558604976982
  0
VERTEX
  5
8F2
  8
DRAFT
 10
-953.6236505652996
 20
-24.61597588051105
 30
0.0
  0
VERTEX
  5
8F3
  8
DRAFT
 10
-953.3228209898716
 20
-24.31563661003616
 30
0.0
 42
-0.2214556596436349
  0
VERTEX
  5
8F4
  8
DRAFT
 10
-953.2236222074268
 20
-24.27957163742439
 30
0.0
  0
SEQEND
  5
8F5
  8
DRAFT
  0
POLYLINE
  5
8F6
  8
DRAFT
 66
     1
 10
0.0
 20
0.0
 30
0.0
  0
VERTEX
  5
8F7
  8
DRAFT
 10
-952.6391260158659
 20
-24.33065207195992
 30
0.0
 42
-0.6310947064873709
  0
VERTEX
  5
8F8
  8
DRAFT
 10
-952.5601179878598
 20
-24.54203758891574
 30
0.0
  0
VERTEX
  5
8F9
  8
DRAFT
 10
-952.6521516552118
 20
-24.63728219698333
 30
0.0
 42
-0.2261705714004884
  0
VERTEX
  5
8FA
  8
DRAFT
 10
-952.7025382693762
 20
-24.65611481348447
 30
0.0
  0
VERTEX
  5
8FB
  8
DRAFT
 10
-952.7213350780512
 20
-24.65447210366487
 30
0.0
 42
-0.160971666483314
  0
VERTEX
  5
8FC
  8
DRAFT
 10
-952.7573669233178
 20
-24.63896651651561
 30
0.0
  0
VERTEX
  5
8FD
  8
DRAFT
 10
-952.7653922733641
 20
-24.63184809572656
 30
0.0
 42
2.022848026536708
  0
VERTEX
  5
8FE
  8
DRAFT
 10
-952.7736643662462
 20
-24.73145857652016
 30
0.0
  0
VERTEX
  5
8FF
  8
DRAFT
 10
-952.7648185397547
 20
-24.72595781603949
 30
0.0
 42
-0.1622776624696073
  0
VERTEX
  5
900
  8
DRAFT
 10
-952.7263726632509
 20
-24.71677007301615
 30
0.0
  0
VERTEX
  5
901
  8
DRAFT
 10
-952.6815062915225
 20
-24.720691080602
 30
0.0
 42
0.2214558604916491
  0
VERTEX
  5
902
  8
DRAFT
 10
-952.6319068526161
 20
-24.70265859846314
 30
0.0
  0
VERTEX
  5
903
  8
DRAFT
 10
-952.3310651995621
 20
-24.40230822295477
 30
0.0
 42
-0.2214552436143403
  0
VERTEX
  5
904
  8
DRAFT
 10
-952.2318665574435
 20
-24.36624339044112
 30
0.0
  0
SEQEND
  5
905
  8
DRAFT
  0
POLYLINE
  5
906
  8
DRAFT
 66
     1
 10
0.0
 20
0.0
 30
0.0
  0
VERTEX
  5
907
  8
DRAFT
 10
-954.0182951073609
 20
-25.71618364936288
 30
0.0
 42
-0.4142489508363718
  0
VERTEX
  5
908
  8
DRAFT
 10
-954.3592128295699
 20
-25.30990900340888
 30
0.0
  0
VERTEX
  5
909
  8
DRAFT
 10
-954.2937849131326
 20
-24.56242521400457
 30
0.0
 42
-0.4141732650329866
  0
VERTEX
  5
90A
  8
DRAFT
 10
-953.8875656136474
 20
-24.22154813241947
 30
0.0
  0
SEQEND
  5
90B
  8
DRAFT
  0
POLYLINE
  5
90C
  8
DRAFT
 66
     1
 10
0.0
 20
0.0
 30
0.0
 70
     1
  0
VERTEX
  5
90D
  8
DRAFT
 10
-976.7642210802943
 20
12.38020462651509
 30
0.0
  0
VERTEX
  5
90E
  8
DRAFT
 10
-976.7642210802943
 20
-35.6197953734849
 30
0.0
  0
VERTEX
  5
90F
  8
DRAFT
 10
-928.7642210802943
 20
-35.6197953734849
 30
0.0
  0
VERTEX
  5
910
  8
DRAFT
 10
-928.7642210802943
 20
12.38020462651509
 30
0.0
  0
SEQEND
  5
911
  8
DRAFT
  0
LINE
  5
912
  8
DRAFT
 10
-936.3847365720326
 20
6.709314723927903
 30
0.0
 11
-936.3847365720333
 21
-34.39393749806965
 31
0.0
  0
LINE
  5
913
  8
DRAFT
 10
-934.8847365720335
 20
6.709314901860317
 30
0.0
 11
-934.8847365720341
 21
-34.39393749806965
 31
0.0
  0
LINE
  5
914
  8
DRAFT
 10
-933.3847365720344
 20
6.709314682431042
 30
0.0
 11
-933.384736572035
 21
-34.39393749806977
 31
0.0
  0
LINE
  5
915
  8
DRAFT
 10
-931.8847365720351
 20
6.709314709070334
 30
0.0
 11
-931.8847365720358
 21
-34.39393749806977
 31
0.0
  0
POLYLINE
  5
916
  8
DRAFT
 66
     1
 10
0.0
 20
0.0
 30
0.0
 70
     1
  0
VERTEX
  5
917
  8
DRAFT
 10
-932.3591460208536
 20
6.812272480089902
 30
0.0
  0
VERTEX
  5
918
  8
DRAFT
 10
-932.213230666523
 20
6.812272480089902
 30
0.0
 42
-0.4142135623732072
  0
VERTEX
  5
919
  8
DRAFT
 10
-932.1819806665233
 20
6.781022480090356
 30
0.0
  0
VERTEX
  5
91A
  8
DRAFT
 10
-932.181980666523
 20
6.193916180877565
 30
0.0
 42
-0.4142135623790232
  0
VERTEX
  5
91B
  8
DRAFT
 10
-932.213230666523
 20
6.162666180877352
 30
0.0
  0
VERTEX
  5
91C
  8
DRAFT
 10
-932.3591460208536
 20
6.162666180877565
 30
0.0
 42
-0.9999999999914734
  0
VERTEX
  5
91D
  8
DRAFT
 10
-932.3591460208537
 20
6.202666180876761
 30
0.0
  0
VERTEX
  5
91E
  8
DRAFT
 10
-932.2532306665228
 20
6.202666180877486
 30
0.0
 42
0.4142135623889778
  0
VERTEX
  5
91F
  8
DRAFT
 10
-932.2219806665235
 20
6.233916180877073
 30
0.0
  0
VERTEX
  5
920
  8
DRAFT
 10
-932.2219806665232
 20
6.741022480089939
 30
0.0
 42
0.4142135623763784
  0
VERTEX
  5
921
  8
DRAFT
 10
-932.2532306665232
 20
6.772272480089896
 30
0.0
  0
VERTEX
  5
922
  8
DRAFT
 10
-932.3591460208536
 20
6.772272480089939
 30
0.0
 42
-1.000000000025557
  0
SEQEND
  5
923
  8
DRAFT
  0
POLYLINE
  5
924
  8
DRAFT
 66
     1
 10
0.0
 20
0.0
 30
0.0
 70
     1
  0
VERTEX
  5
925
  8
DRAFT
 10
-932.9103271232157
 20
6.812272480089902
 30
0.0
  0
VERTEX
  5
926
  8
DRAFT
 10
-933.0562424775462
 20
6.812272480089851
 30
0.0
 42
0.4142135623800715
  0
VERTEX
  5
927
  8
DRAFT
 10
-933.0874924775461
 20
6.781022480090358
 30
0.0
  0
VERTEX
  5
928
  8
DRAFT
 10
-933.0874924775462
 20
6.193916180877565
 30
0.0
 42
0.4142135623525636
  0
VERTEX
  5
929
  8
DRAFT
 10
-933.0562424775462
 20
6.162666180877852
 30
0.0
  0
VERTEX
  5
92A
  8
DRAFT
 10
-932.9103271232157
 20
6.162666180877565
 30
0.0
 42
0.9999999999602095
  0
VERTEX
  5
92B
  8
DRAFT
 10
-932.9103271232156
 20
6.202666180877443
 30
0.0
  0
VERTEX
  5
92C
  8
DRAFT
 10
-933.0162424775465
 20
6.202666180877456
 30
0.0
 42
-0.4142135623506543
  0
VERTEX
  5
92D
  8
DRAFT
 10
-933.0474924775466
 20
6.233916180877075
 30
0.0
  0
VERTEX
  5
92E
  8
DRAFT
 10
-933.047492477546
 20
6.741022480089939
 30
0.0
 42
-0.4142135623703761
  0
VERTEX
  5
92F
  8
DRAFT
 10
-933.016242477546
 20
6.772272480089724
 30
0.0
  0
VERTEX
  5
930
  8
DRAFT
 10
-932.9103271232157
 20
6.772272480089939
 30
0.0
 42
0.9999999999971577
  0
SEQEND
  5
931
  8
DRAFT
  0
POLYLINE
  5
932
  8
DRAFT
 66
     1
 10
0.0
 20
0.0
 30
0.0
 70
     1
  0
VERTEX
  5
933
  8
DRAFT
 10
-933.8591460208527
 20
6.812272480089902
 30
0.0
  0
VERTEX
  5
934
  8
DRAFT
 10
-933.7132306665221
 20
6.812272480089902
 30
0.0
 42
-0.4142135623785818
  0
VERTEX
  5
935
  8
DRAFT
 10
-933.6819806665225
 20
6.781022480090356
 30
0.0
  0
VERTEX
  5
936
  8
DRAFT
 10
-933.6819806665221
 20
6.193916180877565
 30
0.0
 42
-0.4142135623714868
  0
VERTEX
  5
937
  8
DRAFT
 10
-933.7132306665222
 20
6.162666180877352
 30
0.0
  0
VERTEX
  5
938
  8
DRAFT
 10
-933.8591460208527
 20
6.162666180877565
 30
0.0
 42
-0.9999999999602095
  0
VERTEX
  5
939
  8
DRAFT
 10
-933.8591460208527
 20
6.202666180877216
 30
0.0
  0
VERTEX
  5
93A
  8
DRAFT
 10
-933.7532306665219
 20
6.20266618087761
 30
0.0
 42
0.4142135623666844
  0
VERTEX
  5
93B
  8
DRAFT
 10
-933.7219806665221
 20
6.233916180877073
 30
0.0
  0
VERTEX
  5
93C
  8
DRAFT
 10
-933.7219806665223
 20
6.741022480089939
 30
0.0
 42
0.4142135623715187
  0
VERTEX
  5
93D
  8
DRAFT
 10
-933.7532306665223
 20
6.772272480090464
 30
0.0
  0
VERTEX
  5
93E
  8
DRAFT
 10
-933.8591460208527
 20
6.772272480089939
 30
0.0
 42
-1.000000000028444
  0
SEQEND
  5
93F
  8
DRAFT
  0
POLYLINE
  5
940
  8
DRAFT
 66
     1
 10
0.0
 20
0.0
 30
0.0
 70
     1
  0
VERTEX
  5
941
  8
DRAFT
 10
-934.4103271232148
 20
6.812272480089902
 30
0.0
  0
VERTEX
  5
942
  8
DRAFT
 10
-934.5562424775453
 20
6.812272480089821
 30
0.0
 42
0.4142135623759214
  0
VERTEX
  5
943
  8
DRAFT
 10
-934.5874924775457
 20
6.78102248009013
 30
0.0
  0
VERTEX
  5
944
  8
DRAFT
 10
-934.5874924775452
 20
6.193916180877565
 30
0.0
 42
0.4142135623720145
  0
VERTEX
  5
945
  8
DRAFT
 10
-934.5562424775454
 20
6.162666180877352
 30
0.0
  0
VERTEX
  5
946
  8
DRAFT
 10
-934.4103271232148
 20
6.162666180877565
 30
0.0
 42
0.9999999999744204
  0
VERTEX
  5
947
  8
DRAFT
 10
-934.4103271232148
 20
6.202666180876989
 30
0.0
  0
VERTEX
  5
948
  8
DRAFT
 10
-934.5162424775456
 20
6.202666180877561
 30
0.0
 42
-0.4142135623455919
  0
VERTEX
  5
949
  8
DRAFT
 10
-934.5474924775457
 20
6.233916180877075
 30
0.0
  0
VERTEX
  5
94A
  8
DRAFT
 10
-934.5474924775451
 20
6.741022480089939
 30
0.0
 42
-0.4142135623464259
  0
VERTEX
  5
94B
  8
DRAFT
 10
-934.5162424775451
 20
6.772272480089899
 30
0.0
  0
VERTEX
  5
94C
  8
DRAFT
 10
-934.4103271232148
 20
6.772272480089939
 30
0.0
 42
1.000000000031264
  0
SEQEND
  5
94D
  8
DRAFT
  0
POLYLINE
  5
94E
  8
DRAFT
 66
     1
 10
0.0
 20
0.0
 30
0.0
  0
VERTEX
  5
94F
  8
DRAFT
 10
-936.3847365720324
 20
6.709314682431271
 30
0.0
 42
-0.1989123673817854
  0
VERTEX
  5
950
  8
DRAFT
 10
-936.3481249196802
 20
6.797703030079061
 30
0.0
  0
VERTEX
  5
951
  8
DRAFT
 10
-936.021541293463
 20
7.124286656297648
 30
0.0
 42
0.1989123673801547
  0
VERTEX
  5
952
  8
DRAFT
 10
-935.9300121625838
 20
7.345257525418825
 30
0.0
  0
VERTEX
  5
953
  8
DRAFT
 10
-935.9300121625838
 20
7.373296102137303
 30
0.0
 42
1.0000000000294
  0
VERTEX
  5
954
  8
DRAFT
 10
-935.9773822413231
 20
7.373296102137076
 30
0.0
  0
VERTEX
  5
955
  8
DRAFT
 10
-935.9773822413238
 20
7.354455989172422
 30
0.0
 42
-0.1989123673774757
  0
VERTEX
  5
956
  8
DRAFT
 10
-936.0689113722028
 20
7.133485120052689
 30
0.0
  0
VERTEX
  5
957
  8
DRAFT
 10
-936.2365351544122
 20
6.96586133784249
 30
0.0
 42
-0.6681786379291753
  0
VERTEX
  5
958
  8
DRAFT
 10
-936.289882241324
 20
6.987958424754582
 30
0.0
  0
VERTEX
  5
959
  8
DRAFT
 10
-936.2898822413238
 20
7.373296102132073
 30
0.0
 42
-0.3453056976016683
  0
VERTEX
  5
95A
  8
DRAFT
 10
-936.0338866430222
 20
7.699777394461156
 30
0.0
 42
-0.1210102841105056
  0
VERTEX
  5
95B
  8
DRAFT
 10
-935.2355865010433
 20
7.699777394461208
 30
0.0
 42
-0.3453056976012047
  0
VERTEX
  5
95C
  8
DRAFT
 10
-934.9795909027421
 20
7.373296102132068
 30
0.0
  0
VERTEX
  5
95D
  8
DRAFT
 10
-934.9795909027412
 20
6.987958424754581
 30
0.0
 42
-0.6681786379183806
  0
VERTEX
  5
95E
  8
DRAFT
 10
-935.0329379896534
 20
6.96586133784231
 30
0.0
  0
VERTEX
  5
95F
  8
DRAFT
 10
-935.200561771863
 20
7.133485120052598
 30
0.0
 42
-0.198912367376887
  0
VERTEX
  5
960
  8
DRAFT
 10
-935.2920909027418
 20
7.354455989172654
 30
0.0
  0
VERTEX
  5
961
  8
DRAFT
 10
-935.2920909027418
 20
7.373296102137303
 30
0.0
 42
1.0000000000294
  0
VERTEX
  5
962
  8
DRAFT
 10
-935.3394609814818
 20
7.373296102137303
 30
0.0
  0
VERTEX
  5
963
  8
DRAFT
 10
-935.3394609814817
 20
7.34525752541883
 30
0.0
 42
0.1989123673793238
  0
VERTEX
  5
964
  8
DRAFT
 10
-935.2479318506029
 20
7.124286656297738
 30
0.0
  0
VERTEX
  5
965
  8
DRAFT
 10
-934.9213482243852
 20
6.797703030079374
 30
0.0
 42
-0.1989123673817673
  0
VERTEX
  5
966
  8
DRAFT
 10
-934.8847365720334
 20
6.709314682431041
 30
0.0
 42
-0.19891236738158
  0
VERTEX
  5
967
  8
DRAFT
 10
-934.8481249196811
 20
6.797703030078732
 30
0.0
  0
VERTEX
  5
968
  8
DRAFT
 10
-934.5215412934639
 20
7.124286656297558
 30
0.0
 42
0.1989123673798787
  0
VERTEX
  5
969
  8
DRAFT
 10
-934.430012162585
 20
7.345257525418712
 30
0.0
  0
VERTEX
  5
96A
  8
DRAFT
 10
-934.4300121625847
 20
7.373296102137189
 30
0.0
 42
1.000000000038943
  0
VERTEX
  5
96B
  8
DRAFT
 10
-934.4773822413244
 20
7.373296102136962
 30
0.0
  0
VERTEX
  5
96C
  8
DRAFT
 10
-934.4773822413248
 20
7.354455989172308
 30
0.0
 42
-0.1989123673771751
  0
VERTEX
  5
96D
  8
DRAFT
 10
-934.5689113722037
 20
7.133485120052664
 30
0.0
  0
VERTEX
  5
96E
  8
DRAFT
 10
-934.7365351544133
 20
6.965861337842558
 30
0.0
 42
-0.6681786379423272
  0
VERTEX
  5
96F
  8
DRAFT
 10
-934.7898822413242
 20
6.987958424754467
 30
0.0
  0
VERTEX
  5
970
  8
DRAFT
 10
-934.7898822413246
 20
7.373296102132073
 30
0.0
 42
-0.3453056976007075
  0
VERTEX
  5
971
  8
DRAFT
 10
-934.5338866430233
 20
7.699777394461356
 30
0.0
 42
-0.1210102841098444
  0
VERTEX
  5
972
  8
DRAFT
 10
-933.7355865010442
 20
7.699777394461171
 30
0.0
 42
-0.3453056976005457
  0
VERTEX
  5
973
  8
DRAFT
 10
-933.4795909027426
 20
7.373296102131954
 30
0.0
  0
VERTEX
  5
974
  8
DRAFT
 10
-933.4795909027423
 20
6.987958424754467
 30
0.0
 42
-0.668178637922443
  0
VERTEX
  5
975
  8
DRAFT
 10
-933.5329379896544
 20
6.965861337842132
 30
0.0
  0
VERTEX
  5
976
  8
DRAFT
 10
-933.7005617718639
 20
7.133485120052492
 30
0.0
 42
-0.1989123673779093
  0
VERTEX
  5
977
  8
DRAFT
 10
-933.7920909027429
 20
7.354455989172541
 30
0.0
  0
VERTEX
  5
978
  8
DRAFT
 10
-933.7920909027428
 20
7.373296102137189
 30
0.0
 42
1.0000000000294
  0
VERTEX
  5
979
  8
DRAFT
 10
-933.8394609814818
 20
7.373296102137189
 30
0.0
  0
VERTEX
  5
97A
  8
DRAFT
 10
-933.8394609814826
 20
7.345257525418717
 30
0.0
 42
0.1989123673789575
  0
VERTEX
  5
97B
  8
DRAFT
 10
-933.7479318506037
 20
7.124286656297524
 30
0.0
  0
VERTEX
  5
97C
  8
DRAFT
 10
-933.4213482243861
 20
6.797703030079282
 30
0.0
 42
-0.1989123673833911
  0
VERTEX
  5
97D
  8
DRAFT
 10
-933.3847365720346
 20
6.709314682430926
 30
0.0
 42
-0.1989123673837004
  0
VERTEX
  5
97E
  8
DRAFT
 10
-933.348124919682
 20
6.797703030078599
 30
0.0
  0
VERTEX
  5
97F
  8
DRAFT
 10
-933.0215412934647
 20
7.124286656297533
 30
0.0
 42
0.1989123673784521
  0
VERTEX
  5
980
  8
DRAFT
 10
-932.9300121625857
 20
7.345257525418712
 30
0.0
  0
VERTEX
  5
981
  8
DRAFT
 10
-932.9300121625856
 20
7.373296102137189
 30
0.0
 42
1.000000000019743
  0
VERTEX
  5
982
  8
DRAFT
 10
-932.9773822413249
 20
7.373296102136962
 30
0.0
  0
VERTEX
  5
983
  8
DRAFT
 10
-932.9773822413256
 20
7.354455989172308
 30
0.0
 42
-0.1989123673764924
  0
VERTEX
  5
984
  8
DRAFT
 10
-933.0689113722046
 20
7.133485120052798
 30
0.0
  0
VERTEX
  5
985
  8
DRAFT
 10
-933.236535154414
 20
6.965861337842441
 30
0.0
 42
-0.6681786379437108
  0
VERTEX
  5
986
  8
DRAFT
 10
-933.289882241326
 20
6.987958424754468
 30
0.0
  0
VERTEX
  5
987
  8
DRAFT
 10
-933.2898822413255
 20
7.37329610213196
 30
0.0
 42
-0.3453056976010513
  0
VERTEX
  5
988
  8
DRAFT
 10
-933.0338866430242
 20
7.699777394460791
 30
0.0
 42
-0.1210102841102136
  0
VERTEX
  5
989
  8
DRAFT
 10
-932.2355865010451
 20
7.699777394461114
 30
0.0
 42
-0.3453056976016155
  0
VERTEX
  5
98A
  8
DRAFT
 10
-931.9795909027438
 20
7.373296102131954
 30
0.0
  0
VERTEX
  5
98B
  8
DRAFT
 10
-931.9795909027432
 20
6.987958424754467
 30
0.0
 42
-0.668178637901707
  0
VERTEX
  5
98C
  8
DRAFT
 10
-932.0329379896551
 20
6.965861337842062
 30
0.0
  0
VERTEX
  5
98D
  8
DRAFT
 10
-932.2005617718647
 20
7.133485120052497
 30
0.0
 42
-0.1989123673774972
  0
VERTEX
  5
98E
  8
DRAFT
 10
-932.2920909027441
 20
7.354455989172541
 30
0.0
  0
VERTEX
  5
98F
  8
DRAFT
 10
-932.2920909027436
 20
7.373296102137189
 30
0.0
 42
1.0000000000294
  0
VERTEX
  5
990
  8
DRAFT
 10
-932.3394609814835
 20
7.373296102137189
 30
0.0
  0
VERTEX
  5
991
  8
DRAFT
 10
-932.3394609814834
 20
7.345257525418717
 30
0.0
 42
0.198912367379014
  0
VERTEX
  5
992
  8
DRAFT
 10
-932.2479318506046
 20
7.124286656297533
 30
0.0
  0
VERTEX
  5
993
  8
DRAFT
 10
-931.921348224387
 20
6.79770303007923
 30
0.0
 42
-0.1989123673786911
  0
VERTEX
  5
994
  8
DRAFT
 10
-931.8847365720352
 20
6.709314682430927
 30
0.0
  0
SEQEND
  5
995
  8
DRAFT
  0
POLYLINE
  5
996
  8
DRAFT
 66
     1
 10
0.0
 20
0.0
 30
0.0
 70
     1
  0
VERTEX
  5
997
  8
DRAFT
 10
-935.3591460208518
 20
6.812272480090016
 30
0.0
  0
VERTEX
  5
998
  8
DRAFT
 10
-935.2132306665212
 20
6.812272480090016
 30
0.0
 42
-0.4142135623753324
  0
VERTEX
  5
999
  8
DRAFT
 10
-935.1819806665211
 20
6.781022480090242
 30
0.0
  0
VERTEX
  5
99A
  8
DRAFT
 10
-935.1819806665212
 20
6.193916180877679
 30
0.0
 42
-0.4142135623889657
  0
VERTEX
  5
99B
  8
DRAFT
 10
-935.2132306665212
 20
6.162666180877409
 30
0.0
  0
VERTEX
  5
99C
  8
DRAFT
 10
-935.3591460208518
 20
6.162666180877679
 30
0.0
 42
-0.9999999999630517
  0
VERTEX
  5
99D
  8
DRAFT
 10
-935.3591460208518
 20
6.202666180876875
 30
0.0
  0
VERTEX
  5
99E
  8
DRAFT
 10
-935.253230666521
 20
6.202666180877657
 30
0.0
 42
0.4142135623769393
  0
VERTEX
  5
99F
  8
DRAFT
 10
-935.2219806665214
 20
6.233916180877187
 30
0.0
  0
VERTEX
  5
9A0
  8
DRAFT
 10
-935.2219806665214
 20
6.741022480090052
 30
0.0
 42
0.414213562382777
  0
VERTEX
  5
9A1
  8
DRAFT
 10
-935.2532306665214
 20
6.77227248009018
 30
0.0
  0
VERTEX
  5
9A2
  8
DRAFT
 10
-935.3591460208518
 20
6.772272480090052
 30
0.0
 42
-1.0000000000284
  0
SEQEND
  5
9A3
  8
DRAFT
  0
POLYLINE
  5
9A4
  8
DRAFT
 66
     1
 10
0.0
 20
0.0
 30
0.0
 70
     1
  0
VERTEX
  5
9A5
  8
DRAFT
 10
-935.9103271232138
 20
6.812272480090016
 30
0.0
  0
VERTEX
  5
9A6
  8
DRAFT
 10
-936.0562424775444
 20
6.812272480089965
 30
0.0
 42
0.4142135623744616
  0
VERTEX
  5
9A7
  8
DRAFT
 10
-936.0874924775449
 20
6.781022480090244
 30
0.0
  0
VERTEX
  5
9A8
  8
DRAFT
 10
-936.0874924775444
 20
6.193916180877679
 30
0.0
 42
0.4142135623839141
  0
VERTEX
  5
9A9
  8
DRAFT
 10
-936.0562424775444
 20
6.162666180877642
 30
0.0
  0
VERTEX
  5
9AA
  8
DRAFT
 10
-935.9103271232138
 20
6.162666180877679
 30
0.0
 42
0.9999999999602095
  0
VERTEX
  5
9AB
  8
DRAFT
 10
-935.9103271232138
 20
6.20266618087733
 30
0.0
  0
VERTEX
  5
9AC
  8
DRAFT
 10
-936.0162424775447
 20
6.202666180877552
 30
0.0
 42
-0.4142135623543453
  0
VERTEX
  5
9AD
  8
DRAFT
 10
-936.0474924775444
 20
6.233916180877189
 30
0.0
  0
VERTEX
  5
9AE
  8
DRAFT
 10
-936.0474924775442
 20
6.741022480090052
 30
0.0
 42
-0.4142135623594035
  0
VERTEX
  5
9AF
  8
DRAFT
 10
-936.0162424775442
 20
6.772272480090521
 30
0.0
  0
VERTEX
  5
9B0
  8
DRAFT
 10
-935.9103271232138
 20
6.772272480090052
 30
0.0
 42
1.000000000034106
  0
SEQEND
  5
9B1
  8
DRAFT
  0
POLYLINE
  5
9B2
  8
DRAFT
 66
     1
 10
0.0
 20
0.0
 30
0.0
  0
VERTEX
  5
9B3
  8
DRAFT
 10
-931.8847365720352
 20
-2.008352399409392
 30
0.0
 42
-0.1989123673800554
  0
VERTEX
  5
9B4
  8
DRAFT
 10
-931.921348224387
 20
-2.096740747057684
 30
0.0
  0
VERTEX
  5
9B5
  8
DRAFT
 10
-932.2479318506047
 20
-2.42332437327603
 30
0.0
 42
0.1989123673788761
  0
VERTEX
  5
9B6
  8
DRAFT
 10
-932.3394609814833
 20
-2.644295242397172
 30
0.0
  0
VERTEX
  5
9B7
  8
DRAFT
 10
-932.3394609814835
 20
-2.67233381911565
 30
0.0
 42
1.0000000000282
  0
VERTEX
  5
9B8
  8
DRAFT
 10
-932.2920909027436
 20
-2.67233381911565
 30
0.0
  0
VERTEX
  5
9B9
  8
DRAFT
 10
-932.2920909027437
 20
-2.653493706150769
 30
0.0
 42
-0.198912367381533
  0
VERTEX
  5
9BA
  8
DRAFT
 10
-932.200561771865
 20
-2.432522837030768
 30
0.0
  0
VERTEX
  5
9BB
  8
DRAFT
 10
-932.0329379896551
 20
-2.264899054821056
 30
0.0
 42
-0.6681786379330633
  0
VERTEX
  5
9BC
  8
DRAFT
 10
-931.9795909027434
 20
-2.286996141732929
 30
0.0
  0
VERTEX
  5
9BD
  8
DRAFT
 10
-931.9795909027439
 20
-2.67233381911042
 30
0.0
 42
-0.3453056975989096
  0
VERTEX
  5
9BE
  8
DRAFT
 10
-932.2355865010453
 20
-2.99881511143915
 30
0.0
 42
-0.1210102841104869
  0
VERTEX
  5
9BF
  8
DRAFT
 10
-933.0338866430243
 20
-2.998815111439252
 30
0.0
 42
-0.3453056976008718
  0
VERTEX
  5
9C0
  8
DRAFT
 10
-933.2898822413257
 20
-2.672333819110415
 30
0.0
  0
VERTEX
  5
9C1
  8
DRAFT
 10
-933.2898822413264
 20
-2.286996141732928
 30
0.0
 42
-0.6681786379452102
  0
VERTEX
  5
9C2
  8
DRAFT
 10
-933.2365351544144
 20
-2.264899054821158
 30
0.0
  0
VERTEX
  5
9C3
  8
DRAFT
 10
-933.0689113722046
 20
-2.432522837030942
 30
0.0
 42
-0.198912367378883
  0
VERTEX
  5
9C4
  8
DRAFT
 10
-932.9773822413257
 20
-2.653493706150774
 30
0.0
  0
VERTEX
  5
9C5
  8
DRAFT
 10
-932.9773822413257
 20
-2.67233381911565
 30
0.0
 42
1.000000000021
  0
VERTEX
  5
9C6
  8
DRAFT
 10
-932.9300121625857
 20
-2.672333819115423
 30
0.0
  0
VERTEX
  5
9C7
  8
DRAFT
 10
-932.930012162586
 20
-2.644295242397178
 30
0.0
 42
0.1989123673790945
  0
VERTEX
  5
9C8
  8
DRAFT
 10
-933.0215412934649
 20
-2.423324373275997
 30
0.0
  0
VERTEX
  5
9C9
  8
DRAFT
 10
-933.3481249196824
 20
-2.096740747057734
 30
0.0
 42
-0.1989123673735772
  0
VERTEX
  5
9CA
  8
DRAFT
 10
-933.3847365720346
 20
-2.008352399409615
 30
0.0
 42
-0.1989123673711481
  0
VERTEX
  5
9CB
  8
DRAFT
 10
-933.4213482243861
 20
-2.096740747057553
 30
0.0
  0
VERTEX
  5
9CC
  8
DRAFT
 10
-933.7479318506038
 20
-2.423324373276016
 30
0.0
 42
0.1989123673812941
  0
VERTEX
  5
9CD
  8
DRAFT
 10
-933.8394609814827
 20
-2.644295242397173
 30
0.0
  0
VERTEX
  5
9CE
  8
DRAFT
 10
-933.8394609814827
 20
-2.67233381911565
 30
0.0
 42
1.000000000009
  0
VERTEX
  5
9CF
  8
DRAFT
 10
-933.7920909027425
 20
-2.672333819115878
 30
0.0
  0
VERTEX
  5
9D0
  8
DRAFT
 10
-933.792090902743
 20
-2.653493706150769
 30
0.0
 42
-0.1989123673796258
  0
VERTEX
  5
9D1
  8
DRAFT
 10
-933.7005617718639
 20
-2.432522837030763
 30
0.0
  0
VERTEX
  5
9D2
  8
DRAFT
 10
-933.5329379896544
 20
-2.264899054820854
 30
0.0
 42
-0.6681786379349697
  0
VERTEX
  5
9D3
  8
DRAFT
 10
-933.4795909027423
 20
-2.286996141732929
 30
0.0
  0
VERTEX
  5
9D4
  8
DRAFT
 10
-933.4795909027429
 20
-2.67233381911042
 30
0.0
 42
-0.3453056976018124
  0
VERTEX
  5
9D5
  8
DRAFT
 10
-933.7355865010445
 20
-2.998815111439505
 30
0.0
 42
-0.1210102841103287
  0
VERTEX
  5
9D6
  8
DRAFT
 10
-934.5338866430234
 20
-2.998815111439392
 30
0.0
 42
-0.3453056975996945
  0
VERTEX
  5
9D7
  8
DRAFT
 10
-934.7898822413249
 20
-2.672333819110415
 30
0.0
  0
VERTEX
  5
9D8
  8
DRAFT
 10
-934.7898822413255
 20
-2.286996141732814
 30
0.0
 42
-0.6681786379216994
  0
VERTEX
  5
9D9
  8
DRAFT
 10
-934.7365351544132
 20
-2.264899054820875
 30
0.0
  0
VERTEX
  5
9DA
  8
DRAFT
 10
-934.5689113722037
 20
-2.432522837030966
 30
0.0
 42
-0.1989123673782652
  0
VERTEX
  5
9DB
  8
DRAFT
 10
-934.477382241325
 20
-2.653493706150661
 30
0.0
  0
VERTEX
  5
9DC
  8
DRAFT
 10
-934.4773822413248
 20
-2.67233381911565
 30
0.0
 42
0.9999999999910375
  0
VERTEX
  5
9DD
  8
DRAFT
 10
-934.4300121625848
 20
-2.672333819115423
 30
0.0
  0
VERTEX
  5
9DE
  8
DRAFT
 10
-934.4300121625851
 20
-2.644295242397178
 30
0.0
 42
0.1989123673813388
  0
VERTEX
  5
9DF
  8
DRAFT
 10
-934.5215412934638
 20
-2.423324373275996
 30
0.0
  0
VERTEX
  5
9E0
  8
DRAFT
 10
-934.8481249196815
 20
-2.096740747057608
 30
0.0
 42
-0.1989123673758879
  0
VERTEX
  5
9E1
  8
DRAFT
 10
-934.8847365720338
 20
-2.008352399409615
 30
0.0
 42
-0.198912367380538
  0
VERTEX
  5
9E2
  8
DRAFT
 10
-934.9213482243855
 20
-2.096740747057135
 30
0.0
  0
VERTEX
  5
9E3
  8
DRAFT
 10
-935.2479318506029
 20
-2.423324373275896
 30
0.0
 42
0.1989123673801502
  0
VERTEX
  5
9E4
  8
DRAFT
 10
-935.3394609814816
 20
-2.644295242397059
 30
0.0
  0
VERTEX
  5
9E5
  8
DRAFT
 10
-935.3394609814818
 20
-2.672333819115536
 30
0.0
 42
1.0000000000282
  0
VERTEX
  5
9E6
  8
DRAFT
 10
-935.2920909027414
 20
-2.672333819115537
 30
0.0
  0
VERTEX
  5
9E7
  8
DRAFT
 10
-935.2920909027421
 20
-2.653493706150655
 30
0.0
 42
-0.1989123673814029
  0
VERTEX
  5
9E8
  8
DRAFT
 10
-935.2005617718631
 20
-2.432522837030557
 30
0.0
  0
VERTEX
  5
9E9
  8
DRAFT
 10
-935.0329379896535
 20
-2.264899054820824
 30
0.0
 42
-0.6681786379150039
  0
VERTEX
  5
9EA
  8
DRAFT
 10
-934.9795909027424
 20
-2.286996141732815
 30
0.0
  0
VERTEX
  5
9EB
  8
DRAFT
 10
-934.9795909027422
 20
-2.672333819110307
 30
0.0
 42
-0.3453056976021389
  0
VERTEX
  5
9EC
  8
DRAFT
 10
-935.2355865010435
 20
-2.998815111439451
 30
0.0
 42
-0.1210102841113907
  0
VERTEX
  5
9ED
  8
DRAFT
 10
-936.0338866430224
 20
-2.998815111439245
 30
0.0
 42
-0.3453056976010162
  0
VERTEX
  5
9EE
  8
DRAFT
 10
-936.2898822413238
 20
-2.672333819110301
 30
0.0
  0
VERTEX
  5
9EF
  8
DRAFT
 10
-936.2898822413248
 20
-2.286996141732814
 30
0.0
 42
-0.6681786379136906
  0
VERTEX
  5
9F0
  8
DRAFT
 10
-936.2365351544123
 20
-2.264899054820582
 30
0.0
  0
VERTEX
  5
9F1
  8
DRAFT
 10
-936.0689113722028
 20
-2.432522837030844
 30
0.0
 42
-0.1989123673802171
  0
VERTEX
  5
9F2
  8
DRAFT
 10
-935.9773822413243
 20
-2.653493706150661
 30
0.0
  0
VERTEX
  5
9F3
  8
DRAFT
 10
-935.977382241324
 20
-2.672333819115536
 30
0.0
 42
1.000000000016228
  0
VERTEX
  5
9F4
  8
DRAFT
 10
-935.930012162584
 20
-2.672333819115309
 30
0.0
  0
VERTEX
  5
9F5
  8
DRAFT
 10
-935.9300121625843
 20
-2.644295242397064
 30
0.0
 42
0.1989123673814102
  0
VERTEX
  5
9F6
  8
DRAFT
 10
-936.0215412934631
 20
-2.423324373275985
 30
0.0
  0
VERTEX
  5
9F7
  8
DRAFT
 10
-936.3481249196807
 20
-2.096740747057643
 30
0.0
 42
-0.198912367378025
  0
VERTEX
  5
9F8
  8
DRAFT
 10
-936.3847365720325
 20
-2.008352399409274
 30
0.0
  0
SEQEND
  5
9F9
  8
DRAFT
  0
POLYLINE
  5
9FA
  8
DRAFT
 66
     1
 10
0.0
 20
0.0
 30
0.0
 70
     1
  0
VERTEX
  5
9FB
  8
DRAFT
 10
-932.3591460208537
 20
-2.111310197068363
 30
0.0
  0
VERTEX
  5
9FC
  8
DRAFT
 10
-932.2132306665231
 20
-2.111310197068292
 30
0.0
 42
0.4142135623865499
  0
VERTEX
  5
9FD
  8
DRAFT
 10
-932.1819806665235
 20
-2.080060197068818
 30
0.0
  0
VERTEX
  5
9FE
  8
DRAFT
 10
-932.1819806665231
 20
-1.492953897856026
 30
0.0
 42
0.4142135623714207
  0
VERTEX
  5
9FF
  8
DRAFT
 10
-932.2132306665231
 20
-1.461703897855614
 30
0.0
  0
VERTEX
  5
A00
  8
DRAFT
 10
-932.3591460208537
 20
-1.461703897856026
 30
0.0
 42
0.9999999999886312
  0
VERTEX
  5
A01
  8
DRAFT
 10
-932.3591460208538
 20
-1.501703897855393
 30
0.0
  0
VERTEX
  5
A02
  8
DRAFT
 10
-932.2532306665229
 20
-1.50170389785599
 30
0.0
 42
-0.414213562368378
  0
VERTEX
  5
A03
  8
DRAFT
 10
-932.2219806665235
 20
-1.532953897855535
 30
0.0
  0
VERTEX
  5
A04
  8
DRAFT
 10
-932.2219806665233
 20
-2.040060197068399
 30
0.0
 42
-0.4142135623595095
  0
VERTEX
  5
A05
  8
DRAFT
 10
-932.2532306665233
 20
-2.07131019706884
 30
0.0
  0
VERTEX
  5
A06
  8
DRAFT
 10
-932.3591460208537
 20
-2.071310197068399
 30
0.0
 42
0.9999999999829469
  0
SEQEND
  5
A07
  8
DRAFT
  0
POLYLINE
  5
A08
  8
DRAFT
 66
     1
 10
0.0
 20
0.0
 30
0.0
 70
     1
  0
VERTEX
  5
A09
  8
DRAFT
 10
-932.9103271232158
 20
-2.111310197068818
 30
0.0
  0
VERTEX
  5
A0A
  8
DRAFT
 10
-933.0562424775463
 20
-2.111310197068363
 30
0.0
 42
-0.4142135623761912
  0
VERTEX
  5
A0B
  8
DRAFT
 10
-933.0874924775461
 20
-2.080060197068363
 30
0.0
  0
VERTEX
  5
A0C
  8
DRAFT
 10
-933.0874924775463
 20
-1.492953897856026
 30
0.0
 42
-0.4142135623568849
  0
VERTEX
  5
A0D
  8
DRAFT
 10
-933.0562424775463
 20
-1.461703897856325
 30
0.0
  0
VERTEX
  5
A0E
  8
DRAFT
 10
-932.9103271232158
 20
-1.461703897856026
 30
0.0
 42
-0.9999999999971577
  0
VERTEX
  5
A0F
  8
DRAFT
 10
-932.9103271232157
 20
-1.501703897855127
 30
0.0
  0
VERTEX
  5
A10
  8
DRAFT
 10
-933.0162424775466
 20
-1.501703897856032
 30
0.0
 42
0.4142135623817021
  0
VERTEX
  5
A11
  8
DRAFT
 10
-933.0474924775464
 20
-1.532953897855534
 30
0.0
  0
VERTEX
  5
A12
  8
DRAFT
 10
-933.0474924775461
 20
-2.040060197068399
 30
0.0
 42
0.4142135623696384
  0
VERTEX
  5
A13
  8
DRAFT
 10
-933.0162424775461
 20
-2.071310197068287
 30
0.0
  0
VERTEX
  5
A14
  8
DRAFT
 10
-932.9103271232158
 20
-2.071310197068399
 30
0.0
 42
-0.9999999999801047
  0
SEQEND
  5
A15
  8
DRAFT
  0
POLYLINE
  5
A16
  8
DRAFT
 66
     1
 10
0.0
 20
0.0
 30
0.0
 70
     1
  0
VERTEX
  5
A17
  8
DRAFT
 10
-932.3591460208537
 20
-3.98292255279712
 30
0.0
  0
VERTEX
  5
A18
  8
DRAFT
 10
-932.2132306665231
 20
-3.982922552796562
 30
0.0
 42
-0.4142135623511134
  0
VERTEX
  5
A19
  8
DRAFT
 10
-932.1819806665233
 20
-4.014172552796212
 30
0.0
  0
VERTEX
  5
A1A
  8
DRAFT
 10
-932.1819806665233
 20
-4.601278852009457
 30
0.0
 42
-0.4142135623893572
  0
VERTEX
  5
A1B
  8
DRAFT
 10
-932.2132306665233
 20
-4.632528852009784
 30
0.0
  0
VERTEX
  5
A1C
  8
DRAFT
 10
-932.3591460208537
 20
-4.632528852009457
 30
0.0
 42
-1.000000000019895
  0
VERTEX
  5
A1D
  8
DRAFT
 10
-932.3591460208538
 20
-4.592528852009931
 30
0.0
  0
VERTEX
  5
A1E
  8
DRAFT
 10
-932.2532306665229
 20
-4.592528852009423
 30
0.0
 42
0.4142135623689912
  0
VERTEX
  5
A1F
  8
DRAFT
 10
-932.2219806665236
 20
-4.561278852009495
 30
0.0
  0
VERTEX
  5
A20
  8
DRAFT
 10
-932.2219806665235
 20
-4.054172552796629
 30
0.0
 42
0.41421356239368
  0
VERTEX
  5
A21
  8
DRAFT
 10
-932.2532306665235
 20
-4.022922552796558
 30
0.0
  0
VERTEX
  5
A22
  8
DRAFT
 10
-932.3591460208537
 20
-4.022922552796629
 30
0.0
 42
-1.000000000031242
  0
SEQEND
  5
A23
  8
DRAFT
  0
POLYLINE
  5
A24
  8
DRAFT
 66
     1
 10
0.0
 20
0.0
 30
0.0
 70
     1
  0
VERTEX
  5
A25
  8
DRAFT
 10
-932.9103271232158
 20
-3.98292255279712
 30
0.0
  0
VERTEX
  5
A26
  8
DRAFT
 10
-933.0562424775463
 20
-3.982922552796651
 30
0.0
 42
0.4142135623836029
  0
VERTEX
  5
A27
  8
DRAFT
 10
-933.0874924775461
 20
-4.014172552796892
 30
0.0
  0
VERTEX
  5
A28
  8
DRAFT
 10
-933.0874924775463
 20
-4.601278852009457
 30
0.0
 42
0.4142135623640854
  0
VERTEX
  5
A29
  8
DRAFT
 10
-933.0562424775463
 20
-4.632528852010068
 30
0.0
  0
VERTEX
  5
A2A
  8
DRAFT
 10
-932.9103271232158
 20
-4.632528852009457
 30
0.0
 42
0.9999999999943158
  0
VERTEX
  5
A2B
  8
DRAFT
 10
-932.9103271232158
 20
-4.592528852009806
 30
0.0
  0
VERTEX
  5
A2C
  8
DRAFT
 10
-933.0162424775466
 20
-4.592528852009337
 30
0.0
 42
-0.4142135623438902
  0
VERTEX
  5
A2D
  8
DRAFT
 10
-933.0474924775467
 20
-4.561278852009493
 30
0.0
  0
VERTEX
  5
A2E
  8
DRAFT
 10
-933.0474924775461
 20
-4.054172552796629
 30
0.0
 42
-0.4142135623626601
  0
VERTEX
  5
A2F
  8
DRAFT
 10
-933.0162424775461
 20
-4.022922552797089
 30
0.0
  0
VERTEX
  5
A30
  8
DRAFT
 10
-932.9103271232158
 20
-4.022922552796629
 30
0.0
 42
1.000000000076716
  0
SEQEND
  5
A31
  8
DRAFT
  0
POLYLINE
  5
A32
  8
DRAFT
 66
     1
 10
0.0
 20
0.0
 30
0.0
 70
     1
  0
VERTEX
  5
A33
  8
DRAFT
 10
-933.8591460208528
 20
-2.111310197068363
 30
0.0
  0
VERTEX
  5
A34
  8
DRAFT
 10
-933.7132306665222
 20
-2.111310197068308
 30
0.0
 42
0.4142135623639207
  0
VERTEX
  5
A35
  8
DRAFT
 10
-933.6819806665225
 20
-2.080060197068818
 30
0.0
  0
VERTEX
  5
A36
  8
DRAFT
 10
-933.6819806665222
 20
-1.492953897856026
 30
0.0
 42
0.414213562358603
  0
VERTEX
  5
A37
  8
DRAFT
 10
-933.7132306665223
 20
-1.461703897855784
 30
0.0
  0
VERTEX
  5
A38
  8
DRAFT
 10
-933.8591460208528
 20
-1.461703897856026
 30
0.0
 42
0.9999999999971579
  0
VERTEX
  5
A39
  8
DRAFT
 10
-933.8591460208529
 20
-1.501703897855165
 30
0.0
  0
VERTEX
  5
A3A
  8
DRAFT
 10
-933.753230666522
 20
-1.501703897856067
 30
0.0
 42
-0.4142135623783463
  0
VERTEX
  5
A3B
  8
DRAFT
 10
-933.7219806665224
 20
-1.532953897855535
 30
0.0
  0
VERTEX
  5
A3C
  8
DRAFT
 10
-933.7219806665225
 20
-2.040060197068399
 30
0.0
 42
-0.4142135624044444
  0
VERTEX
  5
A3D
  8
DRAFT
 10
-933.7532306665225
 20
-2.07131019706884
 30
0.0
  0
VERTEX
  5
A3E
  8
DRAFT
 10
-933.8591460208528
 20
-2.071310197068399
 30
0.0
 42
0.9999999999971579
  0
SEQEND
  5
A3F
  8
DRAFT
  0
POLYLINE
  5
A40
  8
DRAFT
 66
     1
 10
0.0
 20
0.0
 30
0.0
 70
     1
  0
VERTEX
  5
A41
  8
DRAFT
 10
-934.4103271232149
 20
-2.111310197068818
 30
0.0
  0
VERTEX
  5
A42
  8
DRAFT
 10
-934.5562424775454
 20
-2.111310197068349
 30
0.0
 42
-0.4142135623670373
  0
VERTEX
  5
A43
  8
DRAFT
 10
-934.5874924775453
 20
-2.080060197068363
 30
0.0
  0
VERTEX
  5
A44
  8
DRAFT
 10
-934.5874924775454
 20
-1.492953897856026
 30
0.0
 42
-0.4142135623539399
  0
VERTEX
  5
A45
  8
DRAFT
 10
-934.5562424775455
 20
-1.461703897855955
 30
0.0
  0
VERTEX
  5
A46
  8
DRAFT
 10
-934.4103271232149
 20
-1.461703897856026
 30
0.0
 42
-0.9999999999630517
  0
VERTEX
  5
A47
  8
DRAFT
 10
-934.4103271232149
 20
-1.50170389785562
 30
0.0
  0
VERTEX
  5
A48
  8
DRAFT
 10
-934.5162424775457
 20
-1.50170389785604
 30
0.0
 42
0.4142135623665094
  0
VERTEX
  5
A49
  8
DRAFT
 10
-934.5474924775457
 20
-1.532953897855534
 30
0.0
  0
VERTEX
  5
A4A
  8
DRAFT
 10
-934.5474924775452
 20
-2.040060197068399
 30
0.0
 42
0.4142135623653679
  0
VERTEX
  5
A4B
  8
DRAFT
 10
-934.5162424775452
 20
-2.071310197068551
 30
0.0
  0
VERTEX
  5
A4C
  8
DRAFT
 10
-934.4103271232149
 20
-2.071310197068399
 30
0.0
 42
-0.9999999999715782
  0
SEQEND
  5
A4D
  8
DRAFT
  0
POLYLINE
  5
A4E
  8
DRAFT
 66
     1
 10
0.0
 20
0.0
 30
0.0
 70
     1
  0
VERTEX
  5
A4F
  8
DRAFT
 10
-933.8591460208529
 20
-3.98292255279712
 30
0.0
  0
VERTEX
  5
A50
  8
DRAFT
 10
-933.7132306665223
 20
-3.982922552796666
 30
0.0
 42
-0.4142135623501628
  0
VERTEX
  5
A51
  8
DRAFT
 10
-933.6819806665225
 20
-4.014172552796212
 30
0.0
  0
VERTEX
  5
A52
  8
DRAFT
 10
-933.6819806665223
 20
-4.601278852009457
 30
0.0
 42
-0.4142135623675837
  0
VERTEX
  5
A53
  8
DRAFT
 10
-933.7132306665223
 20
-4.632528852009557
 30
0.0
  0
VERTEX
  5
A54
  8
DRAFT
 10
-933.8591460208529
 20
-4.632528852009457
 30
0.0
 42
-1.000000000005684
  0
VERTEX
  5
A55
  8
DRAFT
 10
-933.8591460208529
 20
-4.592528852009789
 30
0.0
  0
VERTEX
  5
A56
  8
DRAFT
 10
-933.7532306665221
 20
-4.592528852009423
 30
0.0
 42
0.4142135623839209
  0
VERTEX
  5
A57
  8
DRAFT
 10
-933.7219806665227
 20
-4.561278852009495
 30
0.0
  0
VERTEX
  5
A58
  8
DRAFT
 10
-933.7219806665225
 20
-4.054172552796629
 30
0.0
 42
0.4142135623817975
  0
VERTEX
  5
A59
  8
DRAFT
 10
-933.7532306665225
 20
-4.022922552796388
 30
0.0
  0
VERTEX
  5
A5A
  8
DRAFT
 10
-933.8591460208529
 20
-4.022922552796629
 30
0.0
 42
-0.9999999999999999
  0
SEQEND
  5
A5B
  8
DRAFT
  0
POLYLINE
  5
A5C
  8
DRAFT
 66
     1
 10
0.0
 20
0.0
 30
0.0
 70
     1
  0
VERTEX
  5
A5D
  8
DRAFT
 10
-934.410327123215
 20
-3.98292255279712
 30
0.0
  0
VERTEX
  5
A5E
  8
DRAFT
 10
-934.5562424775455
 20
-3.982922552796765
 30
0.0
 42
0.4142135623780924
  0
VERTEX
  5
A5F
  8
DRAFT
 10
-934.587492477545
 20
-4.014172552796892
 30
0.0
  0
VERTEX
  5
A60
  8
DRAFT
 10
-934.5874924775455
 20
-4.601278852009457
 30
0.0
 42
0.4142135623778351
  0
VERTEX
  5
A61
  8
DRAFT
 10
-934.5562424775455
 20
-4.632528852009369
 30
0.0
  0
VERTEX
  5
A62
  8
DRAFT
 10
-934.410327123215
 20
-4.632528852009457
 30
0.0
 42
0.9999999999744204
  0
VERTEX
  5
A63
  8
DRAFT
 10
-934.4103271232149
 20
-4.592528852009579
 30
0.0
  0
VERTEX
  5
A64
  8
DRAFT
 10
-934.5162424775458
 20
-4.592528852009494
 30
0.0
 42
-0.4142135623544808
  0
VERTEX
  5
A65
  8
DRAFT
 10
-934.547492477546
 20
-4.561278852009493
 30
0.0
  0
VERTEX
  5
A66
  8
DRAFT
 10
-934.5474924775453
 20
-4.054172552796629
 30
0.0
 42
-0.4142135623513111
  0
VERTEX
  5
A67
  8
DRAFT
 10
-934.5162424775453
 20
-4.022922552797191
 30
0.0
  0
VERTEX
  5
A68
  8
DRAFT
 10
-934.410327123215
 20
-4.022922552796629
 30
0.0
 42
1.000000000054001
  0
SEQEND
  5
A69
  8
DRAFT
  0
POLYLINE
  5
A6A
  8
DRAFT
 66
     1
 10
0.0
 20
0.0
 30
0.0
 70
     1
  0
VERTEX
  5
A6B
  8
DRAFT
 10
-935.3591460208519
 20
-2.111310197068249
 30
0.0
  0
VERTEX
  5
A6C
  8
DRAFT
 10
-935.2132306665213
 20
-2.111310197068159
 30
0.0
 42
0.4142135623749058
  0
VERTEX
  5
A6D
  8
DRAFT
 10
-935.1819806665213
 20
-2.080060197068704
 30
0.0
  0
VERTEX
  5
A6E
  8
DRAFT
 10
-935.1819806665213
 20
-1.492953897855912
 30
0.0
 42
0.4142135623827735
  0
VERTEX
  5
A6F
  8
DRAFT
 10
-935.2132306665213
 20
-1.461703897855784
 30
0.0
  0
VERTEX
  5
A70
  8
DRAFT
 10
-935.3591460208519
 20
-1.461703897855912
 30
0.0
 42
0.9999999999886312
  0
VERTEX
  5
A71
  8
DRAFT
 10
-935.359146020852
 20
-1.501703897855279
 30
0.0
  0
VERTEX
  5
A72
  8
DRAFT
 10
-935.2532306665211
 20
-1.501703897855919
 30
0.0
 42
-0.414213562368244
  0
VERTEX
  5
A73
  8
DRAFT
 10
-935.2219806665215
 20
-1.532953897855649
 30
0.0
  0
VERTEX
  5
A74
  8
DRAFT
 10
-935.2219806665215
 20
-2.040060197068286
 30
0.0
 42
-0.4142135623850269
  0
VERTEX
  5
A75
  8
DRAFT
 10
-935.2532306665215
 20
-2.071310197069351
 30
0.0
  0
VERTEX
  5
A76
  8
DRAFT
 10
-935.3591460208519
 20
-2.071310197068286
 30
0.0
 42
1.000000000005684
  0
SEQEND
  5
A77
  8
DRAFT
  0
POLYLINE
  5
A78
  8
DRAFT
 66
     1
 10
0.0
 20
0.0
 30
0.0
 70
     1
  0
VERTEX
  5
A79
  8
DRAFT
 10
-935.910327123214
 20
-2.111310197068704
 30
0.0
  0
VERTEX
  5
A7A
  8
DRAFT
 10
-936.0562424775445
 20
-2.111310197068249
 30
0.0
 42
-0.4142135623688122
  0
VERTEX
  5
A7B
  8
DRAFT
 10
-936.0874924775445
 20
-2.080060197068249
 30
0.0
  0
VERTEX
  5
A7C
  8
DRAFT
 10
-936.0874924775446
 20
-1.492953897855912
 30
0.0
 42
-0.4142135623749635
  0
VERTEX
  5
A7D
  8
DRAFT
 10
-936.0562424775446
 20
-1.461703897856251
 30
0.0
  0
VERTEX
  5
A7E
  8
DRAFT
 10
-935.910327123214
 20
-1.461703897855912
 30
0.0
 42
-0.9999999999999999
  0
VERTEX
  5
A7F
  8
DRAFT
 10
-935.9103271232141
 20
-1.501703897855141
 30
0.0
  0
VERTEX
  5
A80
  8
DRAFT
 10
-936.0162424775448
 20
-1.501703897855805
 30
0.0
 42
0.4142135623633918
  0
VERTEX
  5
A81
  8
DRAFT
 10
-936.0474924775446
 20
-1.532953897855648
 30
0.0
  0
VERTEX
  5
A82
  8
DRAFT
 10
-936.0474924775444
 20
-2.040060197068286
 30
0.0
 42
0.414213562369778
  0
VERTEX
  5
A83
  8
DRAFT
 10
-936.0162424775444
 20
-2.071310197068332
 30
0.0
  0
VERTEX
  5
A84
  8
DRAFT
 10
-935.910327123214
 20
-2.071310197068286
 30
0.0
 42
-0.9999999999459989
  0
SEQEND
  5
A85
  8
DRAFT
  0
POLYLINE
  5
A86
  8
DRAFT
 66
     1
 10
0.0
 20
0.0
 30
0.0
  0
VERTEX
  5
A87
  8
DRAFT
 10
-936.3847365720326
 20
-4.085880350455751
 30
0.0
 42
-0.1989123673816064
  0
VERTEX
  5
A88
  8
DRAFT
 10
-936.3481249196806
 20
-3.997492002807888
 30
0.0
  0
VERTEX
  5
A89
  8
DRAFT
 10
-936.0215412934631
 20
-3.67090837658915
 30
0.0
 42
0.1989123673790058
  0
VERTEX
  5
A8A
  8
DRAFT
 10
-935.9300121625846
 20
-3.449937507467969
 30
0.0
  0
VERTEX
  5
A8B
  8
DRAFT
 10
-935.9300121625845
 20
-3.42189893074972
 30
0.0
 42
1.0000000000078
  0
VERTEX
  5
A8C
  8
DRAFT
 10
-935.977382241324
 20
-3.421898930749492
 30
0.0
  0
VERTEX
  5
A8D
  8
DRAFT
 10
-935.977382241324
 20
-3.440739043714146
 30
0.0
 42
-0.1989123673772813
  0
VERTEX
  5
A8E
  8
DRAFT
 10
-936.0689113722029
 20
-3.661709912834592
 30
0.0
  0
VERTEX
  5
A8F
  8
DRAFT
 10
-936.2365351544123
 20
-3.829333695044352
 30
0.0
 42
-0.6681786379181716
  0
VERTEX
  5
A90
  8
DRAFT
 10
-936.2898822413248
 20
-3.807236608132214
 30
0.0
  0
VERTEX
  5
A91
  8
DRAFT
 10
-936.2898822413239
 20
-3.421898930754722
 30
0.0
 42
-0.3453056976027118
  0
VERTEX
  5
A92
  8
DRAFT
 10
-936.0338866430226
 20
-3.09541763842497
 30
0.0
 42
-0.1210102841095873
  0
VERTEX
  5
A93
  8
DRAFT
 10
-935.2355865010435
 20
-3.095417638425817
 30
0.0
 42
-0.3453056975990792
  0
VERTEX
  5
A94
  8
DRAFT
 10
-934.979590902742
 20
-3.421898930754727
 30
0.0
  0
VERTEX
  5
A95
  8
DRAFT
 10
-934.9795909027417
 20
-3.807236608132214
 30
0.0
 42
-0.6681786379158144
  0
VERTEX
  5
A96
  8
DRAFT
 10
-935.0329379896538
 20
-3.829333695044853
 30
0.0
  0
VERTEX
  5
A97
  8
DRAFT
 10
-935.2005617718631
 20
-3.661709912834166
 30
0.0
 42
-0.1989123673780729
  0
VERTEX
  5
A98
  8
DRAFT
 10
-935.2920909027421
 20
-3.440739043714368
 30
0.0
  0
VERTEX
  5
A99
  8
DRAFT
 10
-935.2920909027421
 20
-3.42189893074972
 30
0.0
 42
1.0000000000342
  0
VERTEX
  5
A9A
  8
DRAFT
 10
-935.3394609814816
 20
-3.421898930749719
 30
0.0
  0
VERTEX
  5
A9B
  8
DRAFT
 10
-935.3394609814818
 20
-3.449937507467965
 30
0.0
 42
0.1989123673813117
  0
VERTEX
  5
A9C
  8
DRAFT
 10
-935.247931850603
 20
-3.670908376589107
 30
0.0
  0
VERTEX
  5
A9D
  8
DRAFT
 10
-934.9213482243854
 20
-3.99749200280766
 30
0.0
 42
-0.1989123673776911
  0
VERTEX
  5
A9E
  8
DRAFT
 10
-934.8847365720331
 20
-4.085880350455755
 30
0.0
 42
-0.1989123673797056
  0
VERTEX
  5
A9F
  8
DRAFT
 10
-934.8481249196817
 20
-3.997492002807476
 30
0.0
  0
VERTEX
  5
AA0
  8
DRAFT
 10
-934.5215412934639
 20
-3.670908376589261
 30
0.0
 42
0.1989123673802184
  0
VERTEX
  5
AA1
  8
DRAFT
 10
-934.4300121625851
 20
-3.449937507468084
 30
0.0
  0
VERTEX
  5
AA2
  8
DRAFT
 10
-934.4300121625852
 20
-3.421898930749833
 30
0.0
 42
1.000000000038999
  0
VERTEX
  5
AA3
  8
DRAFT
 10
-934.4773822413249
 20
-3.421898930749605
 30
0.0
  0
VERTEX
  5
AA4
  8
DRAFT
 10
-934.4773822413249
 20
-3.44073904371426
 30
0.0
 42
-0.1989123673780583
  0
VERTEX
  5
AA5
  8
DRAFT
 10
-934.5689113722038
 20
-3.661709912834467
 30
0.0
  0
VERTEX
  5
AA6
  8
DRAFT
 10
-934.7365351544133
 20
-3.829333695044367
 30
0.0
 42
-0.6681786379189181
  0
VERTEX
  5
AA7
  8
DRAFT
 10
-934.7898822413258
 20
-3.807236608132328
 30
0.0
  0
VERTEX
  5
AA8
  8
DRAFT
 10
-934.7898822413248
 20
-3.421898930754722
 30
0.0
 42
-0.3453056976014899
  0
VERTEX
  5
AA9
  8
DRAFT
 10
-934.5338866430236
 20
-3.095417638425199
 30
0.0
 42
-0.1210102841101725
  0
VERTEX
  5
AAA
  8
DRAFT
 10
-933.7355865010444
 20
-3.09541763842594
 30
0.0
 42
-0.3453056975984627
  0
VERTEX
  5
AAB
  8
DRAFT
 10
-933.4795909027426
 20
-3.421898930754841
 30
0.0
  0
VERTEX
  5
AAC
  8
DRAFT
 10
-933.4795909027421
 20
-3.807236608132328
 30
0.0
 42
-0.6681786379063143
  0
VERTEX
  5
AAD
  8
DRAFT
 10
-933.5329379896546
 20
-3.829333695044748
 30
0.0
  0
VERTEX
  5
AAE
  8
DRAFT
 10
-933.7005617718639
 20
-3.661709912834268
 30
0.0
 42
-0.198912367376843
  0
VERTEX
  5
AAF
  8
DRAFT
 10
-933.7920909027425
 20
-3.440739043714482
 30
0.0
  0
VERTEX
  5
AB0
  8
DRAFT
 10
-933.792090902743
 20
-3.421898930749833
 30
0.0
 42
1.000000000051028
  0
VERTEX
  5
AB1
  8
DRAFT
 10
-933.8394609814827
 20
-3.421898930749833
 30
0.0
  0
VERTEX
  5
AB2
  8
DRAFT
 10
-933.8394609814827
 20
-3.449937507468078
 30
0.0
 42
0.198912367380632
  0
VERTEX
  5
AB3
  8
DRAFT
 10
-933.7479318506039
 20
-3.670908376589336
 30
0.0
  0
VERTEX
  5
AB4
  8
DRAFT
 10
-933.4213482243863
 20
-3.997492002807769
 30
0.0
 42
-0.1989123673784335
  0
VERTEX
  5
AB5
  8
DRAFT
 10
-933.3847365720342
 20
-4.085880350455868
 30
0.0
 42
-0.1989123673816037
  0
VERTEX
  5
AB6
  8
DRAFT
 10
-933.3481249196825
 20
-3.997492002807504
 30
0.0
  0
VERTEX
  5
AB7
  8
DRAFT
 10
-933.021541293465
 20
-3.670908376589245
 30
0.0
 42
0.1989123673788461
  0
VERTEX
  5
AB8
  8
DRAFT
 10
-932.9300121625862
 20
-3.449937507468083
 30
0.0
  0
VERTEX
  5
AB9
  8
DRAFT
 10
-932.9300121625862
 20
-3.421898930749833
 30
0.0
 42
1.000000000046199
  0
VERTEX
  5
ABA
  8
DRAFT
 10
-932.9773822413252
 20
-3.421898930749605
 30
0.0
  0
VERTEX
  5
ABB
  8
DRAFT
 10
-932.9773822413257
 20
-3.44073904371426
 30
0.0
 42
-0.1989123673778051
  0
VERTEX
  5
ABC
  8
DRAFT
 10
-933.0689113722046
 20
-3.661709912834547
 30
0.0
  0
VERTEX
  5
ABD
  8
DRAFT
 10
-933.2365351544142
 20
-3.829333695044425
 30
0.0
 42
-0.6681786379515996
  0
VERTEX
  5
ABE
  8
DRAFT
 10
-933.2898822413263
 20
-3.807236608132328
 30
0.0
  0
VERTEX
  5
ABF
  8
DRAFT
 10
-933.2898822413257
 20
-3.421898930754836
 30
0.0
 42
-0.3453056976013464
  0
VERTEX
  5
AC0
  8
DRAFT
 10
-933.0338866430243
 20
-3.095417638425804
 30
0.0
 42
-0.1210102841096475
  0
VERTEX
  5
AC1
  8
DRAFT
 10
-932.2355865010453
 20
-3.09541763842548
 30
0.0
 42
-0.3453056976007374
  0
VERTEX
  5
AC2
  8
DRAFT
 10
-931.9795909027438
 20
-3.421898930754841
 30
0.0
  0
VERTEX
  5
AC3
  8
DRAFT
 10
-931.9795909027433
 20
-3.807236608132328
 30
0.0
 42
-0.6681786379300213
  0
VERTEX
  5
AC4
  8
DRAFT
 10
-932.0329379896557
 20
-3.829333695045031
 30
0.0
  0
VERTEX
  5
AC5
  8
DRAFT
 10
-932.200561771865
 20
-3.66170991283431
 30
0.0
 42
-0.1989123673787629
  0
VERTEX
  5
AC6
  8
DRAFT
 10
-932.2920909027438
 20
-3.440739043714482
 30
0.0
  0
VERTEX
  5
AC7
  8
DRAFT
 10
-932.2920909027438
 20
-3.421898930749833
 30
0.0
 42
1.000000000051028
  0
VERTEX
  5
AC8
  8
DRAFT
 10
-932.3394609814835
 20
-3.421898930749833
 30
0.0
  0
VERTEX
  5
AC9
  8
DRAFT
 10
-932.3394609814836
 20
-3.449937507468078
 30
0.0
 42
0.1989123673785746
  0
VERTEX
  5
ACA
  8
DRAFT
 10
-932.2479318506046
 20
-3.670908376589172
 30
0.0
  0
VERTEX
  5
ACB
  8
DRAFT
 10
-931.9213482243871
 20
-3.997492002807789
 30
0.0
 42
-0.1989123673821561
  0
VERTEX
  5
ACC
  8
DRAFT
 10
-931.8847365720356
 20
-4.085880350455642
 30
0.0
  0
SEQEND
  5
ACD
  8
DRAFT
  0
POLYLINE
  5
ACE
  8
DRAFT
 66
     1
 10
0.0
 20
0.0
 30
0.0
 70
     1
  0
VERTEX
  5
ACF
  8
DRAFT
 10
-935.359146020852
 20
-3.982922552797007
 30
0.0
  0
VERTEX
  5
AD0
  8
DRAFT
 10
-935.2132306665214
 20
-3.982922552796552
 30
0.0
 42
-0.4142135623592635
  0
VERTEX
  5
AD1
  8
DRAFT
 10
-935.1819806665219
 20
-4.014172552796325
 30
0.0
  0
VERTEX
  5
AD2
  8
DRAFT
 10
-935.1819806665214
 20
-4.601278852009344
 30
0.0
 42
-0.4142135623774773
  0
VERTEX
  5
AD3
  8
DRAFT
 10
-935.2132306665214
 20
-4.632528852009206
 30
0.0
  0
VERTEX
  5
AD4
  8
DRAFT
 10
-935.359146020852
 20
-4.632528852009344
 30
0.0
 42
-0.9999999999772625
  0
VERTEX
  5
AD5
  8
DRAFT
 10
-935.359146020852
 20
-4.592528852009011
 30
0.0
  0
VERTEX
  5
AD6
  8
DRAFT
 10
-935.2532306665212
 20
-4.592528852009309
 30
0.0
 42
0.4142135623786287
  0
VERTEX
  5
AD7
  8
DRAFT
 10
-935.2219806665214
 20
-4.561278852009381
 30
0.0
  0
VERTEX
  5
AD8
  8
DRAFT
 10
-935.2219806665217
 20
-4.054172552796516
 30
0.0
 42
0.4142135623724754
  0
VERTEX
  5
AD9
  8
DRAFT
 10
-935.2532306665215
 20
-4.022922552796445
 30
0.0
  0
VERTEX
  5
ADA
  8
DRAFT
 10
-935.359146020852
 20
-4.022922552796516
 30
0.0
 42
-0.9999999999999999
  0
SEQEND
  5
ADB
  8
DRAFT
  0
POLYLINE
  5
ADC
  8
DRAFT
 66
     1
 10
0.0
 20
0.0
 30
0.0
 70
     1
  0
VERTEX
  5
ADD
  8
DRAFT
 10
-935.9103271232141
 20
-3.982922552797007
 30
0.0
  0
VERTEX
  5
ADE
  8
DRAFT
 10
-936.0562424775446
 20
-3.982922552796609
 30
0.0
 42
0.4142135623730014
  0
VERTEX
  5
ADF
  8
DRAFT
 10
-936.0874924775453
 20
-4.014172552796778
 30
0.0
  0
VERTEX
  5
AE0
  8
DRAFT
 10
-936.0874924775446
 20
-4.601278852009344
 30
0.0
 42
0.4142135623873958
  0
VERTEX
  5
AE1
  8
DRAFT
 10
-936.0562424775446
 20
-4.632528852009258
 30
0.0
  0
VERTEX
  5
AE2
  8
DRAFT
 10
-935.9103271232141
 20
-4.632528852009344
 30
0.0
 42
0.999999999985789
  0
VERTEX
  5
AE3
  8
DRAFT
 10
-935.910327123214
 20
-4.592528852009465
 30
0.0
  0
VERTEX
  5
AE4
  8
DRAFT
 10
-936.0162424775449
 20
-4.592528852009274
 30
0.0
 42
-0.4142135623689154
  0
VERTEX
  5
AE5
  8
DRAFT
 10
-936.0474924775448
 20
-4.561278852009379
 30
0.0
  0
VERTEX
  5
AE6
  8
DRAFT
 10
-936.0474924775444
 20
-4.054172552796516
 30
0.0
 42
-0.4142135623608536
  0
VERTEX
  5
AE7
  8
DRAFT
 10
-936.0162424775444
 20
-4.022922552796729
 30
0.0
  0
VERTEX
  5
AE8
  8
DRAFT
 10
-935.9103271232141
 20
-4.022922552796516
 30
0.0
 42
1.000000000051159
  0
SEQEND
  5
AE9
  8
DRAFT
  0
POLYLINE
  5
AEA
  8
DRAFT
 66
     1
 10
0.0
 20
0.0
 30
0.0
 70
     1
  0
VERTEX
  5
AEB
  8
DRAFT
 10
-932.3591460208539
 20
-14.77811758568368
 30
0.0
  0
VERTEX
  5
AEC
  8
DRAFT
 10
-932.2132306665234
 20
-14.77811758568345
 30
0.0
 42
-0.4142135623626343
  0
VERTEX
  5
AED
  8
DRAFT
 10
-932.1819806665233
 20
-14.80936758568323
 30
0.0
  0
VERTEX
  5
AEE
  8
DRAFT
 10
-932.1819806665234
 20
-15.39647388489602
 30
0.0
 42
-0.4142135623700138
  0
VERTEX
  5
AEF
  8
DRAFT
 10
-932.2132306665234
 20
-15.42772388489635
 30
0.0
  0
VERTEX
  5
AF0
  8
DRAFT
 10
-932.3591460208539
 20
-15.42772388489602
 30
0.0
 42
-0.9999999999914734
  0
VERTEX
  5
AF1
  8
DRAFT
 10
-932.359146020854
 20
-15.38772388489638
 30
0.0
  0
VERTEX
  5
AF2
  8
DRAFT
 10
-932.2532306665231
 20
-15.38772388489605
 30
0.0
 42
0.4142135623746019
  0
VERTEX
  5
AF3
  8
DRAFT
 10
-932.2219806665236
 20
-15.35647388489628
 30
0.0
  0
VERTEX
  5
AF4
  8
DRAFT
 10
-932.2219806665236
 20
-14.84936758568342
 30
0.0
 42
0.4142135623922241
  0
VERTEX
  5
AF5
  8
DRAFT
 10
-932.2532306665236
 20
-14.81811758568296
 30
0.0
  0
VERTEX
  5
AF6
  8
DRAFT
 10
-932.3591460208539
 20
-14.81811758568342
 30
0.0
 42
-1.000000000002798
  0
SEQEND
  5
AF7
  8
DRAFT
  0
POLYLINE
  5
AF8
  8
DRAFT
 66
     1
 10
0.0
 20
0.0
 30
0.0
 70
     1
  0
VERTEX
  5
AF9
  8
DRAFT
 10
-932.910327123216
 20
-14.77811758568368
 30
0.0
  0
VERTEX
  5
AFA
  8
DRAFT
 10
-933.0562424775466
 20
-14.77811758568345
 30
0.0
 42
0.414213562376851
  0
VERTEX
  5
AFB
  8
DRAFT
 10
-933.0874924775464
 20
-14.80936758568323
 30
0.0
  0
VERTEX
  5
AFC
  8
DRAFT
 10
-933.0874924775466
 20
-15.39647388489602
 30
0.0
 42
0.4142135623724196
  0
VERTEX
  5
AFD
  8
DRAFT
 10
-933.0562424775466
 20
-15.42772388489652
 30
0.0
  0
VERTEX
  5
AFE
  8
DRAFT
 10
-932.910327123216
 20
-15.42772388489602
 30
0.0
 42
0.9999999999999999
  0
VERTEX
  5
AFF
  8
DRAFT
 10
-932.910327123216
 20
-15.38772388489607
 30
0.0
  0
VERTEX
  5
B00
  8
DRAFT
 10
-933.0162424775468
 20
-15.38772388489605
 30
0.0
 42
-0.414213562351896
  0
VERTEX
  5
B01
  8
DRAFT
 10
-933.0474924775467
 20
-15.35647388489605
 30
0.0
  0
VERTEX
  5
B02
  8
DRAFT
 10
-933.0474924775464
 20
-14.84936758568342
 30
0.0
 42
-0.4142135623598797
  0
VERTEX
  5
B03
  8
DRAFT
 10
-933.0162424775464
 20
-14.81811758568371
 30
0.0
  0
VERTEX
  5
B04
  8
DRAFT
 10
-932.910327123216
 20
-14.81811758568342
 30
0.0
 42
1.000000000031219
  0
SEQEND
  5
B05
  8
DRAFT
  0
POLYLINE
  5
B06
  8
DRAFT
 66
     1
 10
0.0
 20
0.0
 30
0.0
 70
     1
  0
VERTEX
  5
B07
  8
DRAFT
 10
-933.859146020853
 20
-14.77811758568368
 30
0.0
  0
VERTEX
  5
B08
  8
DRAFT
 10
-933.7132306665225
 20
-14.77811758568345
 30
0.0
 42
-0.4142135623652776
  0
VERTEX
  5
B09
  8
DRAFT
 10
-933.6819806665222
 20
-14.80936758568323
 30
0.0
  0
VERTEX
  5
B0A
  8
DRAFT
 10
-933.6819806665225
 20
-15.39647388489602
 30
0.0
 42
-0.4142135623797496
  0
VERTEX
  5
B0B
  8
DRAFT
 10
-933.7132306665226
 20
-15.4277238848958
 30
0.0
  0
VERTEX
  5
B0C
  8
DRAFT
 10
-933.859146020853
 20
-15.42772388489602
 30
0.0
 42
-0.9999999999772625
  0
VERTEX
  5
B0D
  8
DRAFT
 10
-933.859146020853
 20
-15.38772388489706
 30
0.0
  0
VERTEX
  5
B0E
  8
DRAFT
 10
-933.7532306665222
 20
-15.3877238848961
 30
0.0
 42
0.4142135623652947
  0
VERTEX
  5
B0F
  8
DRAFT
 10
-933.7219806665227
 20
-15.35647388489628
 30
0.0
  0
VERTEX
  5
B10
  8
DRAFT
 10
-933.7219806665227
 20
-14.84936758568342
 30
0.0
 42
0.4142135624023346
  0
VERTEX
  5
B11
  8
DRAFT
 10
-933.7532306665227
 20
-14.81811758568313
 30
0.0
  0
VERTEX
  5
B12
  8
DRAFT
 10
-933.859146020853
 20
-14.81811758568342
 30
0.0
 42
-1.00000000002558
  0
SEQEND
  5
B13
  8
DRAFT
  0
POLYLINE
  5
B14
  8
DRAFT
 66
     1
 10
0.0
 20
0.0
 30
0.0
 70
     1
  0
VERTEX
  5
B15
  8
DRAFT
 10
-934.4103271232151
 20
-14.77811758568368
 30
0.0
  0
VERTEX
  5
B16
  8
DRAFT
 10
-934.5562424775457
 20
-14.77811758568358
 30
0.0
 42
0.4142135623730897
  0
VERTEX
  5
B17
  8
DRAFT
 10
-934.5874924775462
 20
-14.80936758568345
 30
0.0
  0
VERTEX
  5
B18
  8
DRAFT
 10
-934.5874924775457
 20
-15.39647388489602
 30
0.0
 42
0.4142135623832745
  0
VERTEX
  5
B19
  8
DRAFT
 10
-934.5562424775457
 20
-15.42772388489599
 30
0.0
  0
VERTEX
  5
B1A
  8
DRAFT
 10
-934.4103271232151
 20
-15.42772388489602
 30
0.0
 42
0.9999999999545254
  0
VERTEX
  5
B1B
  8
DRAFT
 10
-934.4103271232151
 20
-15.38772388489615
 30
0.0
  0
VERTEX
  5
B1C
  8
DRAFT
 10
-934.5162424775459
 20
-15.3877238848961
 30
0.0
 42
-0.4142135623771033
  0
VERTEX
  5
B1D
  8
DRAFT
 10
-934.5474924775453
 20
-15.35647388489605
 30
0.0
  0
VERTEX
  5
B1E
  8
DRAFT
 10
-934.5474924775455
 20
-14.84936758568342
 30
0.0
 42
-0.4142135623616651
  0
VERTEX
  5
B1F
  8
DRAFT
 10
-934.5162424775455
 20
-14.81811758568358
 30
0.0
  0
VERTEX
  5
B20
  8
DRAFT
 10
-934.4103271232151
 20
-14.81811758568342
 30
0.0
 42
1.000000000034106
  0
SEQEND
  5
B21
  8
DRAFT
  0
POLYLINE
  5
B22
  8
DRAFT
 66
     1
 10
0.0
 20
0.0
 30
0.0
  0
VERTEX
  5
B23
  8
DRAFT
 10
-936.3847365720328
 20
-14.88107538334231
 30
0.0
 42
-0.1989123673772509
  0
VERTEX
  5
B24
  8
DRAFT
 10
-936.3481249196809
 20
-14.79268703569431
 30
0.0
  0
VERTEX
  5
B25
  8
DRAFT
 10
-936.0215412934634
 20
-14.46610340947569
 30
0.0
 42
0.1989123673783903
  0
VERTEX
  5
B26
  8
DRAFT
 10
-935.9300121625844
 20
-14.24513254035476
 30
0.0
  0
VERTEX
  5
B27
  8
DRAFT
 10
-935.9300121625844
 20
-14.21709396363628
 30
0.0
 42
1.0000000000531
  0
VERTEX
  5
B28
  8
DRAFT
 10
-935.9773822413243
 20
-14.21709396363628
 30
0.0
  0
VERTEX
  5
B29
  8
DRAFT
 10
-935.9773822413241
 20
-14.23593407660093
 30
0.0
 42
-0.1989123673806796
  0
VERTEX
  5
B2A
  8
DRAFT
 10
-936.0689113722029
 20
-14.45690494572099
 30
0.0
  0
VERTEX
  5
B2B
  8
DRAFT
 10
-936.2365351544126
 20
-14.6245287279308
 30
0.0
 42
-0.6681786379376349
  0
VERTEX
  5
B2C
  8
DRAFT
 10
-936.289882241325
 20
-14.60243164101878
 30
0.0
  0
VERTEX
  5
B2D
  8
DRAFT
 10
-936.2898822413241
 20
-14.21709396364128
 30
0.0
 42
-0.3453056976000308
  0
VERTEX
  5
B2E
  8
DRAFT
 10
-936.0338866430228
 20
-13.89061267131192
 30
0.0
 42
-0.1210102841100664
  0
VERTEX
  5
B2F
  8
DRAFT
 10
-935.2355865010437
 20
-13.89061267131229
 30
0.0
 42
-0.345305697601125
  0
VERTEX
  5
B30
  8
DRAFT
 10
-934.9795909027425
 20
-14.21709396364152
 30
0.0
  0
VERTEX
  5
B31
  8
DRAFT
 10
-934.9795909027414
 20
-14.602431641019
 30
0.0
 42
-0.6681786379103904
  0
VERTEX
  5
B32
  8
DRAFT
 10
-935.032937989654
 20
-14.62452872793124
 30
0.0
  0
VERTEX
  5
B33
  8
DRAFT
 10
-935.2005617718632
 20
-14.45690494572096
 30
0.0
 42
-0.1989123673765502
  0
VERTEX
  5
B34
  8
DRAFT
 10
-935.2920909027422
 20
-14.23593407660093
 30
0.0
  0
VERTEX
  5
B35
  8
DRAFT
 10
-935.2920909027421
 20
-14.21709396363628
 30
0.0
 42
1.000000000060299
  0
VERTEX
  5
B36
  8
DRAFT
 10
-935.3394609814823
 20
-14.21709396363628
 30
0.0
  0
VERTEX
  5
B37
  8
DRAFT
 10
-935.339460981482
 20
-14.24513254035453
 30
0.0
 42
0.1989123673830437
  0
VERTEX
  5
B38
  8
DRAFT
 10
-935.247931850603
 20
-14.46610340947571
 30
0.0
  0
VERTEX
  5
B39
  8
DRAFT
 10
-934.9213482243855
 20
-14.79268703569419
 30
0.0
 42
-0.1989123673844662
  0
VERTEX
  5
B3A
  8
DRAFT
 10
-934.8847365720338
 20
-14.88107538334209
 30
0.0
 42
-0.1989123673760297
  0
VERTEX
  5
B3B
  8
DRAFT
 10
-934.8481249196817
 20
-14.79268703569432
 30
0.0
  0
VERTEX
  5
B3C
  8
DRAFT
 10
-934.5215412934642
 20
-14.46610340947584
 30
0.0
 42
0.1989123673799103
  0
VERTEX
  5
B3D
  8
DRAFT
 10
-934.4300121625852
 20
-14.24513254035487
 30
0.0
  0
VERTEX
  5
B3E
  8
DRAFT
 10
-934.4300121625854
 20
-14.21709396363639
 30
0.0
 42
1.0000000000219
  0
VERTEX
  5
B3F
  8
DRAFT
 10
-934.4773822413251
 20
-14.21709396363639
 30
0.0
  0
VERTEX
  5
B40
  8
DRAFT
 10
-934.477382241325
 20
-14.23593407660105
 30
0.0
 42
-0.1989123673781714
  0
VERTEX
  5
B41
  8
DRAFT
 10
-934.5689113722043
 20
-14.45690494572068
 30
0.0
  0
VERTEX
  5
B42
  8
DRAFT
 10
-934.7365351544136
 20
-14.62452872793092
 30
0.0
 42
-0.6681786379502803
  0
VERTEX
  5
B43
  8
DRAFT
 10
-934.789882241326
 20
-14.60243164101889
 30
0.0
  0
VERTEX
  5
B44
  8
DRAFT
 10
-934.789882241325
 20
-14.21709396364128
 30
0.0
 42
-0.3453056976008742
  0
VERTEX
  5
B45
  8
DRAFT
 10
-934.5338866430236
 20
-13.89061267131234
 30
0.0
 42
-0.1210102841103891
  0
VERTEX
  5
B46
  8
DRAFT
 10
-933.7355865010446
 20
-13.89061267131255
 30
0.0
 42
-0.3453056976012108
  0
VERTEX
  5
B47
  8
DRAFT
 10
-933.4795909027431
 20
-14.21709396364163
 30
0.0
  0
VERTEX
  5
B48
  8
DRAFT
 10
-933.4795909027425
 20
-14.60243164101912
 30
0.0
 42
-0.6681786379131689
  0
VERTEX
  5
B49
  8
DRAFT
 10
-933.5329379896547
 20
-14.62452872793135
 30
0.0
  0
VERTEX
  5
B4A
  8
DRAFT
 10
-933.7005617718643
 20
-14.45690494572108
 30
0.0
 42
-0.1989123673771968
  0
VERTEX
  5
B4B
  8
DRAFT
 10
-933.7920909027432
 20
-14.23593407660104
 30
0.0
  0
VERTEX
  5
B4C
  8
DRAFT
 10
-933.7920909027432
 20
-14.21709396363639
 30
0.0
 42
1.000000000040987
  0
VERTEX
  5
B4D
  8
DRAFT
 10
-933.8394609814818
 20
-14.21709396363617
 30
0.0
  0
VERTEX
  5
B4E
  8
DRAFT
 10
-933.8394609814831
 20
-14.24513254035464
 30
0.0
 42
0.1989123673799894
  0
VERTEX
  5
B4F
  8
DRAFT
 10
-933.747931850604
 20
-14.46610340947602
 30
0.0
  0
VERTEX
  5
B50
  8
DRAFT
 10
-933.4213482243864
 20
-14.79268703569434
 30
0.0
 42
-0.1989123673852851
  0
VERTEX
  5
B51
  8
DRAFT
 10
-933.3847365720347
 20
-14.8810753833422
 30
0.0
 42
-0.1989123673767541
  0
VERTEX
  5
B52
  8
DRAFT
 10
-933.3481249196824
 20
-14.7926870356944
 30
0.0
  0
VERTEX
  5
B53
  8
DRAFT
 10
-933.0215412934649
 20
-14.46610340947583
 30
0.0
 42
0.1989123673787864
  0
VERTEX
  5
B54
  8
DRAFT
 10
-932.930012162586
 20
-14.24513254035487
 30
0.0
  0
VERTEX
  5
B55
  8
DRAFT
 10
-932.9300121625862
 20
-14.21709396363639
 30
0.0
 42
1.000000000060299
  0
VERTEX
  5
B56
  8
DRAFT
 10
-932.9773822413264
 20
-14.21709396363639
 30
0.0
  0
VERTEX
  5
B57
  8
DRAFT
 10
-932.9773822413259
 20
-14.23593407660105
 30
0.0
 42
-0.1989123673793416
  0
VERTEX
  5
B58
  8
DRAFT
 10
-933.0689113722049
 20
-14.45690494572111
 30
0.0
  0
VERTEX
  5
B59
  8
DRAFT
 10
-933.2365351544141
 20
-14.62452872793107
 30
0.0
 42
-0.6681786379435787
  0
VERTEX
  5
B5A
  8
DRAFT
 10
-933.2898822413257
 20
-14.60243164101889
 30
0.0
  0
VERTEX
  5
B5B
  8
DRAFT
 10
-933.2898822413257
 20
-14.2170939636414
 30
0.0
 42
-0.3453056976011378
  0
VERTEX
  5
B5C
  8
DRAFT
 10
-933.0338866430244
 20
-13.89061267131253
 30
0.0
 42
-0.1210102841102907
  0
VERTEX
  5
B5D
  8
DRAFT
 10
-932.2355865010454
 20
-13.89061267131239
 30
0.0
 42
-0.3453056975996111
  0
VERTEX
  5
B5E
  8
DRAFT
 10
-931.9795909027438
 20
-14.21709396364163
 30
0.0
  0
VERTEX
  5
B5F
  8
DRAFT
 10
-931.9795909027434
 20
-14.60243164101912
 30
0.0
 42
-0.6681786379020774
  0
VERTEX
  5
B60
  8
DRAFT
 10
-932.0329379896555
 20
-14.62452872793163
 30
0.0
  0
VERTEX
  5
B61
  8
DRAFT
 10
-932.2005617718651
 20
-14.45690494572109
 30
0.0
 42
-0.1989123673769938
  0
VERTEX
  5
B62
  8
DRAFT
 10
-932.292090902744
 20
-14.23593407660104
 30
0.0
  0
VERTEX
  5
B63
  8
DRAFT
 10
-932.292090902744
 20
-14.21709396363639
 30
0.0
 42
1.000000000050699
  0
VERTEX
  5
B64
  8
DRAFT
 10
-932.3394609814842
 20
-14.21709396363639
 30
0.0
  0
VERTEX
  5
B65
  8
DRAFT
 10
-932.3394609814837
 20
-14.24513254035464
 30
0.0
 42
0.1989123673796867
  0
VERTEX
  5
B66
  8
DRAFT
 10
-932.2479318506048
 20
-14.46610340947601
 30
0.0
  0
VERTEX
  5
B67
  8
DRAFT
 10
-931.9213482243873
 20
-14.79268703569433
 30
0.0
 42
-0.198912367384259
  0
VERTEX
  5
B68
  8
DRAFT
 10
-931.8847365720353
 20
-14.88107538334243
 30
0.0
  0
SEQEND
  5
B69
  8
DRAFT
  0
POLYLINE
  5
B6A
  8
DRAFT
 66
     1
 10
0.0
 20
0.0
 30
0.0
 70
     1
  0
VERTEX
  5
B6B
  8
DRAFT
 10
-935.3591460208521
 20
-14.77811758568357
 30
0.0
  0
VERTEX
  5
B6C
  8
DRAFT
 10
-935.2132306665216
 20
-14.77811758568334
 30
0.0
 42
-0.4142135623711409
  0
VERTEX
  5
B6D
  8
DRAFT
 10
-935.1819806665216
 20
-14.80936758568311
 30
0.0
  0
VERTEX
  5
B6E
  8
DRAFT
 10
-935.1819806665216
 20
-15.3964738848959
 30
0.0
 42
-0.4142135623849831
  0
VERTEX
  5
B6F
  8
DRAFT
 10
-935.2132306665217
 20
-15.4277238848963
 30
0.0
  0
VERTEX
  5
B70
  8
DRAFT
 10
-935.3591460208521
 20
-15.4277238848959
 30
0.0
 42
-1.000000000028377
  0
VERTEX
  5
B71
  8
DRAFT
 10
-935.3591460208522
 20
-15.38772388489642
 30
0.0
  0
VERTEX
  5
B72
  8
DRAFT
 10
-935.2532306665213
 20
-15.38772388489594
 30
0.0
 42
0.414213562364641
  0
VERTEX
  5
B73
  8
DRAFT
 10
-935.221980666522
 20
-15.35647388489617
 30
0.0
  0
VERTEX
  5
B74
  8
DRAFT
 10
-935.2219806665217
 20
-14.8493675856833
 30
0.0
 42
0.4142135623912539
  0
VERTEX
  5
B75
  8
DRAFT
 10
-935.2532306665217
 20
-14.81811758568273
 30
0.0
  0
VERTEX
  5
B76
  8
DRAFT
 10
-935.3591460208521
 20
-14.8181175856833
 30
0.0
 42
-1.000000000034106
  0
SEQEND
  5
B77
  8
DRAFT
  0
POLYLINE
  5
B78
  8
DRAFT
 66
     1
 10
0.0
 20
0.0
 30
0.0
 70
     1
  0
VERTEX
  5
B79
  8
DRAFT
 10
-935.9103271232142
 20
-14.77811758568334
 30
0.0
  0
VERTEX
  5
B7A
  8
DRAFT
 10
-936.0562424775447
 20
-14.77811758568334
 30
0.0
 42
0.4142135623728537
  0
VERTEX
  5
B7B
  8
DRAFT
 10
-936.0874924775449
 20
-14.80936758568334
 30
0.0
  0
VERTEX
  5
B7C
  8
DRAFT
 10
-936.0874924775447
 20
-15.3964738848959
 30
0.0
 42
0.4142135623848435
  0
VERTEX
  5
B7D
  8
DRAFT
 10
-936.0562424775449
 20
-15.4277238848959
 30
0.0
  0
VERTEX
  5
B7E
  8
DRAFT
 10
-935.9103271232142
 20
-15.4277238848959
 30
0.0
 42
1.000000000017053
  0
VERTEX
  5
B7F
  8
DRAFT
 10
-935.9103271232142
 20
-15.3877238848961
 30
0.0
  0
VERTEX
  5
B80
  8
DRAFT
 10
-936.016242477545
 20
-15.38772388489594
 30
0.0
 42
-0.4142135623631218
  0
VERTEX
  5
B81
  8
DRAFT
 10
-936.0474924775443
 20
-15.35647388489594
 30
0.0
  0
VERTEX
  5
B82
  8
DRAFT
 10
-936.0474924775447
 20
-14.8493675856833
 30
0.0
 42
-0.4142135623591962
  0
VERTEX
  5
B83
  8
DRAFT
 10
-936.0162424775447
 20
-14.8181175856835
 30
0.0
  0
VERTEX
  5
B84
  8
DRAFT
 10
-935.9103271232142
 20
-14.8181175856833
 30
0.0
 42
1.000000000002842
  0
SEQEND
  5
B85
  8
DRAFT
  0
POLYLINE
  5
B86
  8
DRAFT
 66
     1
 10
0.0
 20
0.0
 30
0.0
  0
VERTEX
  5
B87
  8
DRAFT
 10
-931.8847365720354
 20
-12.80354743229641
 30
0.0
 42
-0.1989123673767096
  0
VERTEX
  5
B88
  8
DRAFT
 10
-931.921348224387
 20
-12.89193577994486
 30
0.0
  0
VERTEX
  5
B89
  8
DRAFT
 10
-932.2479318506048
 20
-13.2185194061628
 30
0.0
 42
0.1989123673818401
  0
VERTEX
  5
B8A
  8
DRAFT
 10
-932.3394609814834
 20
-13.43949027528373
 30
0.0
  0
VERTEX
  5
B8B
  8
DRAFT
 10
-932.3394609814837
 20
-13.46752885200221
 30
0.0
 42
1.0000000000333
  0
VERTEX
  5
B8C
  8
DRAFT
 10
-932.2920909027438
 20
-13.46752885200221
 30
0.0
  0
VERTEX
  5
B8D
  8
DRAFT
 10
-932.292090902744
 20
-13.44868873903778
 30
0.0
 42
-0.1989123673802811
  0
VERTEX
  5
B8E
  8
DRAFT
 10
-932.2005617718652
 20
-13.22771786991753
 30
0.0
  0
VERTEX
  5
B8F
  8
DRAFT
 10
-932.0329379896555
 20
-13.06009408770769
 30
0.0
 42
-0.6681786379086695
  0
VERTEX
  5
B90
  8
DRAFT
 10
-931.9795909027426
 20
-13.08219117461972
 30
0.0
  0
VERTEX
  5
B91
  8
DRAFT
 10
-931.9795909027441
 20
-13.46752885199721
 30
0.0
 42
-0.3453056976004629
  0
VERTEX
  5
B92
  8
DRAFT
 10
-932.2355865010455
 20
-13.79401014432571
 30
0.0
 42
-0.1210102841102645
  0
VERTEX
  5
B93
  8
DRAFT
 10
-933.0338866430245
 20
-13.79401014432655
 30
0.0
 42
-0.3453056975990243
  0
VERTEX
  5
B94
  8
DRAFT
 10
-933.2898822413257
 20
-13.4675288519972
 30
0.0
  0
VERTEX
  5
B95
  8
DRAFT
 10
-933.2898822413265
 20
-13.08219117461972
 30
0.0
 42
-0.6681786379250377
  0
VERTEX
  5
B96
  8
DRAFT
 10
-933.2365351544145
 20
-13.06009408770764
 30
0.0
  0
VERTEX
  5
B97
  8
DRAFT
 10
-933.0689113722049
 20
-13.22771786991775
 30
0.0
 42
-0.1989123673792884
  0
VERTEX
  5
B98
  8
DRAFT
 10
-932.9773822413263
 20
-13.44868873903779
 30
0.0
  0
VERTEX
  5
B99
  8
DRAFT
 10
-932.9773822413263
 20
-13.46752885200221
 30
0.0
 42
1.000000000031012
  0
VERTEX
  5
B9A
  8
DRAFT
 10
-932.9300121625863
 20
-13.46752885200244
 30
0.0
  0
VERTEX
  5
B9B
  8
DRAFT
 10
-932.9300121625862
 20
-13.43949027528397
 30
0.0
 42
0.1989123673803788
  0
VERTEX
  5
B9C
  8
DRAFT
 10
-933.0215412934649
 20
-13.21851940616273
 30
0.0
  0
VERTEX
  5
B9D
  8
DRAFT
 10
-933.3481249196826
 20
-12.8919357799443
 30
0.0
 42
-0.1989123673805583
  0
VERTEX
  5
B9E
  8
DRAFT
 10
-933.3847365720343
 20
-12.8035474322964
 30
0.0
 42
-0.1989123673787064
  0
VERTEX
  5
B9F
  8
DRAFT
 10
-933.4213482243862
 20
-12.89193577994455
 30
0.0
  0
VERTEX
  5
BA0
  8
DRAFT
 10
-933.747931850604
 20
-13.21851940616278
 30
0.0
 42
0.1989123673802216
  0
VERTEX
  5
BA1
  8
DRAFT
 10
-933.8394609814828
 20
-13.43949027528373
 30
0.0
  0
VERTEX
  5
BA2
  8
DRAFT
 10
-933.839460981483
 20
-13.46752885200221
 30
0.0
 42
1.0000000000165
  0
VERTEX
  5
BA3
  8
DRAFT
 10
-933.7920909027432
 20
-13.46752885200221
 30
0.0
  0
VERTEX
  5
BA4
  8
DRAFT
 10
-933.792090902743
 20
-13.44868873903778
 30
0.0
 42
-0.1989123673795977
  0
VERTEX
  5
BA5
  8
DRAFT
 10
-933.7005617718644
 20
-13.2277178699172
 30
0.0
  0
VERTEX
  5
BA6
  8
DRAFT
 10
-933.5329379896547
 20
-13.06009408770769
 30
0.0
 42
-0.6681786379123309
  0
VERTEX
  5
BA7
  8
DRAFT
 10
-933.4795909027417
 20
-13.08219117461972
 30
0.0
  0
VERTEX
  5
BA8
  8
DRAFT
 10
-933.4795909027432
 20
-13.46752885199721
 30
0.0
 42
-0.3453056976019904
  0
VERTEX
  5
BA9
  8
DRAFT
 10
-933.7355865010447
 20
-13.7940101443258
 30
0.0
 42
-0.1210102841095922
  0
VERTEX
  5
BAA
  8
DRAFT
 10
-934.5338866430236
 20
-13.79401014432643
 30
0.0
 42
-0.3453056976012832
  0
VERTEX
  5
BAB
  8
DRAFT
 10
-934.7898822413244
 20
-13.4675288519972
 30
0.0
  0
VERTEX
  5
BAC
  8
DRAFT
 10
-934.7898822413254
 20
-13.0821911746196
 30
0.0
 42
-0.6681786379303538
  0
VERTEX
  5
BAD
  8
DRAFT
 10
-934.7365351544134
 20
-13.06009408770736
 30
0.0
  0
VERTEX
  5
BAE
  8
DRAFT
 10
-934.568911372204
 20
-13.22771786991775
 30
0.0
 42
-0.1989123673791585
  0
VERTEX
  5
BAF
  8
DRAFT
 10
-934.4773822413255
 20
-13.44868873903768
 30
0.0
  0
VERTEX
  5
BB0
  8
DRAFT
 10
-934.4773822413251
 20
-13.46752885200221
 30
0.0
 42
1.000000000045299
  0
VERTEX
  5
BB1
  8
DRAFT
 10
-934.4300121625852
 20
-13.46752885200244
 30
0.0
  0
VERTEX
  5
BB2
  8
DRAFT
 10
-934.4300121625854
 20
-13.43949027528397
 30
0.0
 42
0.1989123673796198
  0
VERTEX
  5
BB3
  8
DRAFT
 10
-934.5215412934642
 20
-13.21851940616267
 30
0.0
  0
VERTEX
  5
BB4
  8
DRAFT
 10
-934.8481249196817
 20
-12.89193577994418
 30
0.0
 42
-0.1989123673752682
  0
VERTEX
  5
BB5
  8
DRAFT
 10
-934.8847365720335
 20
-12.8035474322964
 30
0.0
 42
-0.198912367377699
  0
VERTEX
  5
BB6
  8
DRAFT
 10
-934.9213482243852
 20
-12.89193577994466
 30
0.0
  0
VERTEX
  5
BB7
  8
DRAFT
 10
-935.2479318506031
 20
-13.21851940616267
 30
0.0
 42
0.1989123673766866
  0
VERTEX
  5
BB8
  8
DRAFT
 10
-935.3394609814819
 20
-13.43949027528362
 30
0.0
  0
VERTEX
  5
BB9
  8
DRAFT
 10
-935.3394609814819
 20
-13.4675288520021
 30
0.0
 42
1.0000000000333
  0
VERTEX
  5
BBA
  8
DRAFT
 10
-935.292090902742
 20
-13.4675288520021
 30
0.0
  0
VERTEX
  5
BBB
  8
DRAFT
 10
-935.2920909027422
 20
-13.44868873903767
 30
0.0
 42
-0.1989123673790204
  0
VERTEX
  5
BBC
  8
DRAFT
 10
-935.2005617718634
 20
-13.2277178699171
 30
0.0
  0
VERTEX
  5
BBD
  8
DRAFT
 10
-935.0329379896538
 20
-13.06009408770758
 30
0.0
 42
-0.6681786379341013
  0
VERTEX
  5
BBE
  8
DRAFT
 10
-934.9795909027413
 20
-13.0821911746196
 30
0.0
  0
VERTEX
  5
BBF
  8
DRAFT
 10
-934.9795909027423
 20
-13.46752885199709
 30
0.0
 42
-0.3453056976008305
  0
VERTEX
  5
BC0
  8
DRAFT
 10
-935.2355865010438
 20
-13.79401014432633
 30
0.0
 42
-0.1210102841102609
  0
VERTEX
  5
BC1
  8
DRAFT
 10
-936.0338866430225
 20
-13.79401014432622
 30
0.0
 42
-0.3453056976006286
  0
VERTEX
  5
BC2
  8
DRAFT
 10
-936.2898822413237
 20
-13.46752885199709
 30
0.0
  0
VERTEX
  5
BC3
  8
DRAFT
 10
-936.2898822413247
 20
-13.0821911746196
 30
0.0
 42
-0.6681786379114609
  0
VERTEX
  5
BC4
  8
DRAFT
 10
-936.2365351544128
 20
-13.06009408770752
 30
0.0
  0
VERTEX
  5
BC5
  8
DRAFT
 10
-936.068911372203
 20
-13.22771786991767
 30
0.0
 42
-0.1989123673805588
  0
VERTEX
  5
BC6
  8
DRAFT
 10
-935.9773822413247
 20
-13.44868873903768
 30
0.0
  0
VERTEX
  5
BC7
  8
DRAFT
 10
-935.9773822413243
 20
-13.4675288520021
 30
0.0
 42
1.000000000042899
  0
VERTEX
  5
BC8
  8
DRAFT
 10
-935.9300121625846
 20
-13.46752885200232
 30
0.0
  0
VERTEX
  5
BC9
  8
DRAFT
 10
-935.9300121625844
 20
-13.43949027528385
 30
0.0
 42
0.1989123673805802
  0
VERTEX
  5
BCA
  8
DRAFT
 10
-936.0215412934632
 20
-13.21851940616247
 30
0.0
  0
VERTEX
  5
BCB
  8
DRAFT
 10
-936.3481249196807
 20
-12.89193577994416
 30
0.0
 42
-0.1989123673759688
  0
VERTEX
  5
BCC
  8
DRAFT
 10
-936.3847365720328
 20
-12.80354743229629
 30
0.0
  0
SEQEND
  5
BCD
  8
DRAFT
  0
POLYLINE
  5
BCE
  8
DRAFT
 66
     1
 10
0.0
 20
0.0
 30
0.0
 70
     1
  0
VERTEX
  5
BCF
  8
DRAFT
 10
-932.3591460208539
 20
-12.90650522995492
 30
0.0
  0
VERTEX
  5
BD0
  8
DRAFT
 10
-932.2132306665234
 20
-12.9065052299554
 30
0.0
 42
0.4142135623760091
  0
VERTEX
  5
BD1
  8
DRAFT
 10
-932.1819806665234
 20
-12.87525522995538
 30
0.0
  0
VERTEX
  5
BD2
  8
DRAFT
 10
-932.1819806665233
 20
-12.28814893074259
 30
0.0
 42
0.4142135623711072
  0
VERTEX
  5
BD3
  8
DRAFT
 10
-932.2132306665233
 20
-12.25689893074247
 30
0.0
  0
VERTEX
  5
BD4
  8
DRAFT
 10
-932.3591460208539
 20
-12.25689893074259
 30
0.0
 42
1.000000000014255
  0
VERTEX
  5
BD5
  8
DRAFT
 10
-932.3591460208539
 20
-12.29689893074216
 30
0.0
  0
VERTEX
  5
BD6
  8
DRAFT
 10
-932.2532306665231
 20
-12.2968989307426
 30
0.0
 42
-0.4142135623951703
  0
VERTEX
  5
BD7
  8
DRAFT
 10
-932.2219806665239
 20
-12.32814893074255
 30
0.0
  0
VERTEX
  5
BD8
  8
DRAFT
 10
-932.2219806665236
 20
-12.83525522995541
 30
0.0
 42
-0.4142135623884908
  0
VERTEX
  5
BD9
  8
DRAFT
 10
-932.2532306665236
 20
-12.86650522995558
 30
0.0
  0
VERTEX
  5
BDA
  8
DRAFT
 10
-932.3591460208539
 20
-12.86650522995541
 30
0.0
 42
1.000000000011369
  0
SEQEND
  5
BDB
  8
DRAFT
  0
POLYLINE
  5
BDC
  8
DRAFT
 66
     1
 10
0.0
 20
0.0
 30
0.0
 70
     1
  0
VERTEX
  5
BDD
  8
DRAFT
 10
-932.910327123216
 20
-12.90650522995538
 30
0.0
  0
VERTEX
  5
BDE
  8
DRAFT
 10
-933.0562424775466
 20
-12.90650522995538
 30
0.0
 42
-0.414213562384863
  0
VERTEX
  5
BDF
  8
DRAFT
 10
-933.0874924775463
 20
-12.87525522995538
 30
0.0
  0
VERTEX
  5
BE0
  8
DRAFT
 10
-933.0874924775466
 20
-12.28814893074259
 30
0.0
 42
-0.4142135623680814
  0
VERTEX
  5
BE1
  8
DRAFT
 10
-933.0562424775464
 20
-12.25689893074235
 30
0.0
  0
VERTEX
  5
BE2
  8
DRAFT
 10
-932.910327123216
 20
-12.25689893074259
 30
0.0
 42
-1.000000000025535
  0
VERTEX
  5
BE3
  8
DRAFT
 10
-932.9103271232159
 20
-12.2968989307423
 30
0.0
  0
VERTEX
  5
BE4
  8
DRAFT
 10
-933.0162424775468
 20
-12.29689893074254
 30
0.0
 42
0.4142135623555101
  0
VERTEX
  5
BE5
  8
DRAFT
 10
-933.0474924775465
 20
-12.32814893074278
 30
0.0
  0
VERTEX
  5
BE6
  8
DRAFT
 10
-933.0474924775464
 20
-12.83525522995541
 30
0.0
 42
0.4142135623552974
  0
VERTEX
  5
BE7
  8
DRAFT
 10
-933.0162424775464
 20
-12.86650522995519
 30
0.0
  0
VERTEX
  5
BE8
  8
DRAFT
 10
-932.910327123216
 20
-12.86650522995541
 30
0.0
 42
-1.00000000000564
  0
SEQEND
  5
BE9
  8
DRAFT
  0
POLYLINE
  5
BEA
  8
DRAFT
 66
     1
 10
0.0
 20
0.0
 30
0.0
 70
     1
  0
VERTEX
  5
BEB
  8
DRAFT
 10
-933.859146020853
 20
-12.90650522995492
 30
0.0
  0
VERTEX
  5
BEC
  8
DRAFT
 10
-933.7132306665225
 20
-12.90650522995531
 30
0.0
 42
0.4142135623703989
  0
VERTEX
  5
BED
  8
DRAFT
 10
-933.6819806665225
 20
-12.87525522995538
 30
0.0
  0
VERTEX
  5
BEE
  8
DRAFT
 10
-933.6819806665225
 20
-12.28814893074259
 30
0.0
 42
0.4142135623808228
  0
VERTEX
  5
BEF
  8
DRAFT
 10
-933.7132306665225
 20
-12.25689893074224
 30
0.0
  0
VERTEX
  5
BF0
  8
DRAFT
 10
-933.859146020853
 20
-12.25689893074259
 30
0.0
 42
0.9999999999829471
  0
VERTEX
  5
BF1
  8
DRAFT
 10
-933.859146020853
 20
-12.29689893074333
 30
0.0
  0
VERTEX
  5
BF2
  8
DRAFT
 10
-933.7532306665222
 20
-12.29689893074255
 30
0.0
 42
-0.4142135623699859
  0
VERTEX
  5
BF3
  8
DRAFT
 10
-933.7219806665231
 20
-12.32814893074255
 30
0.0
  0
VERTEX
  5
BF4
  8
DRAFT
 10
-933.7219806665227
 20
-12.83525522995541
 30
0.0
 42
-0.4142135623575486
  0
VERTEX
  5
BF5
  8
DRAFT
 10
-933.7532306665227
 20
-12.86650522995535
 30
0.0
  0
VERTEX
  5
BF6
  8
DRAFT
 10
-933.859146020853
 20
-12.86650522995541
 30
0.0
 42
1.00000000002558
  0
SEQEND
  5
BF7
  8
DRAFT
  0
POLYLINE
  5
BF8
  8
DRAFT
 66
     1
 10
0.0
 20
0.0
 30
0.0
 70
     1
  0
VERTEX
  5
BF9
  8
DRAFT
 10
-934.4103271232151
 20
-12.90650522995538
 30
0.0
  0
VERTEX
  5
BFA
  8
DRAFT
 10
-934.5562424775457
 20
-12.90650522995538
 30
0.0
 42
-0.4142135623752788
  0
VERTEX
  5
BFB
  8
DRAFT
 10
-934.5874924775453
 20
-12.87525522995538
 30
0.0
  0
VERTEX
  5
BFC
  8
DRAFT
 10
-934.5874924775457
 20
-12.28814893074259
 30
0.0
 42
-0.4142135623690668
  0
VERTEX
  5
BFD
  8
DRAFT
 10
-934.5562424775457
 20
-12.25689893074195
 30
0.0
  0
VERTEX
  5
BFE
  8
DRAFT
 10
-934.4103271232151
 20
-12.25689893074259
 30
0.0
 42
-0.9999999999999999
  0
VERTEX
  5
BFF
  8
DRAFT
 10
-934.410327123215
 20
-12.29689893074265
 30
0.0
  0
VERTEX
  5
C00
  8
DRAFT
 10
-934.5162424775459
 20
-12.29689893074252
 30
0.0
 42
0.4142135623592959
  0
VERTEX
  5
C01
  8
DRAFT
 10
-934.5474924775458
 20
-12.32814893074255
 30
0.0
  0
VERTEX
  5
C02
  8
DRAFT
 10
-934.5474924775455
 20
-12.83525522995541
 30
0.0
 42
0.4142135623620813
  0
VERTEX
  5
C03
  8
DRAFT
 10
-934.5162424775455
 20
-12.86650522995512
 30
0.0
  0
VERTEX
  5
C04
  8
DRAFT
 10
-934.4103271232151
 20
-12.86650522995541
 30
0.0
 42
-1.000000000002842
  0
SEQEND
  5
C05
  8
DRAFT
  0
POLYLINE
  5
C06
  8
DRAFT
 66
     1
 10
0.0
 20
0.0
 30
0.0
 70
     1
  0
VERTEX
  5
C07
  8
DRAFT
 10
-935.3591460208521
 20
-12.90650522995481
 30
0.0
  0
VERTEX
  5
C08
  8
DRAFT
 10
-935.2132306665216
 20
-12.90650522995526
 30
0.0
 42
0.4142135623624046
  0
VERTEX
  5
C09
  8
DRAFT
 10
-935.1819806665213
 20
-12.87525522995526
 30
0.0
  0
VERTEX
  5
C0A
  8
DRAFT
 10
-935.1819806665216
 20
-12.28814893074247
 30
0.0
 42
0.4142135623580697
  0
VERTEX
  5
C0B
  8
DRAFT
 10
-935.2132306665216
 20
-12.25689893074218
 30
0.0
  0
VERTEX
  5
C0C
  8
DRAFT
 10
-935.3591460208521
 20
-12.25689893074247
 30
0.0
 42
1.000000000005684
  0
VERTEX
  5
C0D
  8
DRAFT
 10
-935.3591460208521
 20
-12.2968989307423
 30
0.0
  0
VERTEX
  5
C0E
  8
DRAFT
 10
-935.2532306665213
 20
-12.29689893074244
 30
0.0
 42
-0.4142135623637286
  0
VERTEX
  5
C0F
  8
DRAFT
 10
-935.2219806665217
 20
-12.32814893074244
 30
0.0
  0
VERTEX
  5
C10
  8
DRAFT
 10
-935.2219806665217
 20
-12.8352552299553
 30
0.0
 42
-0.4142135623884908
  0
VERTEX
  5
C11
  8
DRAFT
 10
-935.2532306665217
 20
-12.86650522995546
 30
0.0
  0
VERTEX
  5
C12
  8
DRAFT
 10
-935.3591460208521
 20
-12.8665052299553
 30
0.0
 42
1.000000000034062
  0
SEQEND
  5
C13
  8
DRAFT
  0
POLYLINE
  5
C14
  8
DRAFT
 66
     1
 10
0.0
 20
0.0
 30
0.0
 70
     1
  0
VERTEX
  5
C15
  8
DRAFT
 10
-935.9103271232142
 20
-12.90650522995526
 30
0.0
  0
VERTEX
  5
C16
  8
DRAFT
 10
-936.0562424775447
 20
-12.90650522995526
 30
0.0
 42
-0.414213562369822
  0
VERTEX
  5
C17
  8
DRAFT
 10
-936.0874924775449
 20
-12.87525522995526
 30
0.0
  0
VERTEX
  5
C18
  8
DRAFT
 10
-936.0874924775447
 20
-12.28814893074247
 30
0.0
 42
-0.4142135623516711
  0
VERTEX
  5
C19
  8
DRAFT
 10
-936.0562424775447
 20
-12.25689893074241
 30
0.0
  0
VERTEX
  5
C1A
  8
DRAFT
 10
-935.9103271232142
 20
-12.25689893074247
 30
0.0
 42
-0.9999999999630517
  0
VERTEX
  5
C1B
  8
DRAFT
 10
-935.9103271232142
 20
-12.29689893074231
 30
0.0
  0
VERTEX
  5
C1C
  8
DRAFT
 10
-936.016242477545
 20
-12.29689893074237
 30
0.0
 42
0.4142135623775685
  0
VERTEX
  5
C1D
  8
DRAFT
 10
-936.0474924775443
 20
-12.32814893074244
 30
0.0
  0
VERTEX
  5
C1E
  8
DRAFT
 10
-936.0474924775446
 20
-12.8352552299553
 30
0.0
 42
0.4142135623575698
  0
VERTEX
  5
C1F
  8
DRAFT
 10
-936.0162424775446
 20
-12.86650522995485
 30
0.0
  0
VERTEX
  5
C20
  8
DRAFT
 10
-935.9103271232142
 20
-12.8665052299553
 30
0.0
 42
-0.999999999985789
  0
SEQEND
  5
C21
  8
DRAFT
  0
POLYLINE
  5
C22
  8
DRAFT
 66
     1
 10
0.0
 20
0.0
 30
0.0
  0
VERTEX
  5
C23
  8
DRAFT
 10
-931.8847365720355
 20
-23.59874246518298
 30
0.0
 42
-0.1989123673767813
  0
VERTEX
  5
C24
  8
DRAFT
 10
-931.9213482243873
 20
-23.68713081283132
 30
0.0
  0
VERTEX
  5
C25
  8
DRAFT
 10
-932.247931850605
 20
-24.01371443904935
 30
0.0
 42
0.1989123673784478
  0
VERTEX
  5
C26
  8
DRAFT
 10
-932.339460981484
 20
-24.23468530817053
 30
0.0
  0
VERTEX
  5
C27
  8
DRAFT
 10
-932.3394609814839
 20
-24.26272388488901
 30
0.0
 42
1.0000000000333
  0
VERTEX
  5
C28
  8
DRAFT
 10
-932.2920909027439
 20
-24.26272388488901
 30
0.0
  0
VERTEX
  5
C29
  8
DRAFT
 10
-932.2920909027441
 20
-24.24388377192435
 30
0.0
 42
-0.1989123673806878
  0
VERTEX
  5
C2A
  8
DRAFT
 10
-932.2005617718653
 20
-24.02291290280429
 30
0.0
  0
VERTEX
  5
C2B
  8
DRAFT
 10
-932.0329379896557
 20
-23.85528912059426
 30
0.0
 42
-0.6681786379216706
  0
VERTEX
  5
C2C
  8
DRAFT
 10
-931.9795909027431
 20
-23.87738620750628
 30
0.0
  0
VERTEX
  5
C2D
  8
DRAFT
 10
-931.9795909027441
 20
-24.26272388488378
 30
0.0
 42
-0.3453056976007629
  0
VERTEX
  5
C2E
  8
DRAFT
 10
-932.2355865010456
 20
-24.58920517721331
 30
0.0
 42
-0.1210102841096723
  0
VERTEX
  5
C2F
  8
DRAFT
 10
-933.0338866430246
 20
-24.5892051772134
 30
0.0
 42
-0.345305697600177
  0
VERTEX
  5
C30
  8
DRAFT
 10
-933.2898822413256
 20
-24.26272388488377
 30
0.0
  0
VERTEX
  5
C31
  8
DRAFT
 10
-933.2898822413267
 20
-23.87738620750651
 30
0.0
 42
-0.668178637941002
  0
VERTEX
  5
C32
  8
DRAFT
 10
-933.2365351544145
 20
-23.85528912059403
 30
0.0
  0
VERTEX
  5
C33
  8
DRAFT
 10
-933.068911372205
 20
-24.02291290280455
 30
0.0
 42
-0.1989123673780938
  0
VERTEX
  5
C34
  8
DRAFT
 10
-932.9773822413265
 20
-24.24388377192436
 30
0.0
  0
VERTEX
  5
C35
  8
DRAFT
 10
-932.977382241326
 20
-24.26272388488901
 30
0.0
 42
1.0000000000093
  0
VERTEX
  5
C36
  8
DRAFT
 10
-932.9300121625861
 20
-24.26272388488901
 30
0.0
  0
VERTEX
  5
C37
  8
DRAFT
 10
-932.9300121625863
 20
-24.23468530817053
 30
0.0
 42
0.1989123673800581
  0
VERTEX
  5
C38
  8
DRAFT
 10
-933.021541293465
 20
-24.01371443904979
 30
0.0
  0
VERTEX
  5
C39
  8
DRAFT
 10
-933.3481249196827
 20
-23.68713081283108
 30
0.0
 42
-0.1989123673802062
  0
VERTEX
  5
C3A
  8
DRAFT
 10
-933.3847365720345
 20
-23.59874246518297
 30
0.0
 42
-0.1989123673770098
  0
VERTEX
  5
C3B
  8
DRAFT
 10
-933.4213482243863
 20
-23.68713081283118
 30
0.0
  0
VERTEX
  5
C3C
  8
DRAFT
 10
-933.7479318506041
 20
-24.01371443904935
 30
0.0
 42
0.1989123673785493
  0
VERTEX
  5
C3D
  8
DRAFT
 10
-933.8394609814832
 20
-24.23468530817053
 30
0.0
  0
VERTEX
  5
C3E
  8
DRAFT
 10
-933.8394609814832
 20
-24.26272388488901
 30
0.0
 42
1.000000000050175
  0
VERTEX
  5
C3F
  8
DRAFT
 10
-933.7920909027428
 20
-24.26272388488923
 30
0.0
  0
VERTEX
  5
C40
  8
DRAFT
 10
-933.7920909027433
 20
-24.24388377192435
 30
0.0
 42
-0.1989123673799781
  0
VERTEX
  5
C41
  8
DRAFT
 10
-933.7005617718643
 20
-24.02291290280423
 30
0.0
  0
VERTEX
  5
C42
  8
DRAFT
 10
-933.5329379896548
 20
-23.85528912059426
 30
0.0
 42
-0.6681786379147876
  0
VERTEX
  5
C43
  8
DRAFT
 10
-933.479590902742
 20
-23.87738620750628
 30
0.0
  0
VERTEX
  5
C44
  8
DRAFT
 10
-933.4795909027433
 20
-24.26272388488378
 30
0.0
 42
-0.3453056976007873
  0
VERTEX
  5
C45
  8
DRAFT
 10
-933.7355865010447
 20
-24.58920517721326
 30
0.0
 42
-0.1210102841107414
  0
VERTEX
  5
C46
  8
DRAFT
 10
-934.5338866430237
 20
-24.58920517721342
 30
0.0
 42
-0.3453056975998722
  0
VERTEX
  5
C47
  8
DRAFT
 10
-934.7898822413251
 20
-24.26272388488377
 30
0.0
  0
VERTEX
  5
C48
  8
DRAFT
 10
-934.7898822413259
 20
-23.8773862075064
 30
0.0
 42
-0.668178637915098
  0
VERTEX
  5
C49
  8
DRAFT
 10
-934.7365351544139
 20
-23.85528912059406
 30
0.0
  0
VERTEX
  5
C4A
  8
DRAFT
 10
-934.5689113722041
 20
-24.02291290280455
 30
0.0
 42
-0.1989123673775404
  0
VERTEX
  5
C4B
  8
DRAFT
 10
-934.4773822413252
 20
-24.24388377192424
 30
0.0
  0
VERTEX
  5
C4C
  8
DRAFT
 10
-934.4773822413254
 20
-24.26272388488901
 30
0.0
 42
1.0000000000021
  0
VERTEX
  5
C4D
  8
DRAFT
 10
-934.4300121625852
 20
-24.26272388488901
 30
0.0
  0
VERTEX
  5
C4E
  8
DRAFT
 10
-934.4300121625854
 20
-24.23468530817053
 30
0.0
 42
0.1989123673806741
  0
VERTEX
  5
C4F
  8
DRAFT
 10
-934.5215412934646
 20
-24.01371443904982
 30
0.0
  0
VERTEX
  5
C50
  8
DRAFT
 10
-934.8481249196819
 20
-23.68713081283094
 30
0.0
 42
-0.1989123673825196
  0
VERTEX
  5
C51
  8
DRAFT
 10
-934.8847365720338
 20
-23.5987424651832
 30
0.0
 42
-0.1989123673791548
  0
VERTEX
  5
C52
  8
DRAFT
 10
-934.9213482243854
 20
-23.68713081283101
 30
0.0
  0
VERTEX
  5
C53
  8
DRAFT
 10
-935.2479318506032
 20
-24.01371443904925
 30
0.0
 42
0.1989123673777158
  0
VERTEX
  5
C54
  8
DRAFT
 10
-935.3394609814823
 20
-24.23468530817042
 30
0.0
  0
VERTEX
  5
C55
  8
DRAFT
 10
-935.3394609814821
 20
-24.26272388488889
 30
0.0
 42
1.0000000000309
  0
VERTEX
  5
C56
  8
DRAFT
 10
-935.2920909027417
 20
-24.26272388488912
 30
0.0
  0
VERTEX
  5
C57
  8
DRAFT
 10
-935.2920909027425
 20
-24.24388377192424
 30
0.0
 42
-0.1989123673815832
  0
VERTEX
  5
C58
  8
DRAFT
 10
-935.2005617718635
 20
-24.02291290280426
 30
0.0
  0
VERTEX
  5
C59
  8
DRAFT
 10
-935.0329379896539
 20
-23.85528912059414
 30
0.0
 42
-0.6681786379108372
  0
VERTEX
  5
C5A
  8
DRAFT
 10
-934.9795909027412
 20
-23.87738620750617
 30
0.0
  0
VERTEX
  5
C5B
  8
DRAFT
 10
-934.9795909027423
 20
-24.26272388488366
 30
0.0
 42
-0.3453056976015116
  0
VERTEX
  5
C5C
  8
DRAFT
 10
-935.2355865010437
 20
-24.58920517721345
 30
0.0
 42
-0.1210102841097663
  0
VERTEX
  5
C5D
  8
DRAFT
 10
-936.0338866430228
 20
-24.58920517721304
 30
0.0
 42
-0.3453056976010769
  0
VERTEX
  5
C5E
  8
DRAFT
 10
-936.2898822413239
 20
-24.26272388488366
 30
0.0
  0
VERTEX
  5
C5F
  8
DRAFT
 10
-936.2898822413249
 20
-23.8773862075064
 30
0.0
 42
-0.6681786379064054
  0
VERTEX
  5
C60
  8
DRAFT
 10
-936.2365351544129
 20
-23.85528912059408
 30
0.0
  0
VERTEX
  5
C61
  8
DRAFT
 10
-936.0689113722032
 20
-24.02291290280441
 30
0.0
 42
-0.1989123673802692
  0
VERTEX
  5
C62
  8
DRAFT
 10
-935.9773822413244
 20
-24.24388377192424
 30
0.0
  0
VERTEX
  5
C63
  8
DRAFT
 10
-935.9773822413244
 20
-24.26272388488889
 30
0.0
 42
1.0000000000213
  0
VERTEX
  5
C64
  8
DRAFT
 10
-935.9300121625847
 20
-24.26272388488889
 30
0.0
  0
VERTEX
  5
C65
  8
DRAFT
 10
-935.9300121625845
 20
-24.23468530817042
 30
0.0
 42
0.1989123673799
  0
VERTEX
  5
C66
  8
DRAFT
 10
-936.0215412934634
 20
-24.01371443904943
 30
0.0
  0
VERTEX
  5
C67
  8
DRAFT
 10
-936.348124919681
 20
-23.68713081283096
 30
0.0
 42
-0.1989123673735735
  0
VERTEX
  5
C68
  8
DRAFT
 10
-936.3847365720331
 20
-23.59874246518286
 30
0.0
  0
SEQEND
  5
C69
  8
DRAFT
  0
POLYLINE
  5
C6A
  8
DRAFT
 66
     1
 10
0.0
 20
0.0
 30
0.0
 70
     1
  0
VERTEX
  5
C6B
  8
DRAFT
 10
-932.359146020854
 20
-23.70170026284172
 30
0.0
  0
VERTEX
  5
C6C
  8
DRAFT
 10
-932.2132306665235
 20
-23.70170026284195
 30
0.0
 42
0.4142135623878592
  0
VERTEX
  5
C6D
  8
DRAFT
 10
-932.1819806665236
 20
-23.67045026284195
 30
0.0
  0
VERTEX
  5
C6E
  8
DRAFT
 10
-932.1819806665235
 20
-23.08334396362938
 30
0.0
 42
0.4142135623556105
  0
VERTEX
  5
C6F
  8
DRAFT
 10
-932.2132306665235
 20
-23.05209396362961
 30
0.0
  0
VERTEX
  5
C70
  8
DRAFT
 10
-932.359146020854
 20
-23.05209396362938
 30
0.0
 42
1.000000000005773
  0
VERTEX
  5
C71
  8
DRAFT
 10
-932.3591460208542
 20
-23.09209396362871
 30
0.0
  0
VERTEX
  5
C72
  8
DRAFT
 10
-932.2532306665232
 20
-23.0920939636294
 30
0.0
 42
-0.4142135623737538
  0
VERTEX
  5
C73
  8
DRAFT
 10
-932.2219806665238
 20
-23.12334396362935
 30
0.0
  0
VERTEX
  5
C74
  8
DRAFT
 10
-932.2219806665237
 20
-23.63045026284198
 30
0.0
 42
-0.4142135623701715
  0
VERTEX
  5
C75
  8
DRAFT
 10
-932.2532306665237
 20
-23.66170026284209
 30
0.0
  0
VERTEX
  5
C76
  8
DRAFT
 10
-932.359146020854
 20
-23.66170026284198
 30
0.0
 42
1.000000000028422
  0
SEQEND
  5
C77
  8
DRAFT
  0
POLYLINE
  5
C78
  8
DRAFT
 66
     1
 10
0.0
 20
0.0
 30
0.0
 70
     1
  0
VERTEX
  5
C79
  8
DRAFT
 10
-932.9103271232161
 20
-23.70170026284217
 30
0.0
  0
VERTEX
  5
C7A
  8
DRAFT
 10
-933.0562424775467
 20
-23.701700262842
 30
0.0
 42
-0.4142135623889895
  0
VERTEX
  5
C7B
  8
DRAFT
 10
-933.0874924775464
 20
-23.67045026284195
 30
0.0
  0
VERTEX
  5
C7C
  8
DRAFT
 10
-933.0874924775467
 20
-23.08334396362938
 30
0.0
 42
-0.4142135623688105
  0
VERTEX
  5
C7D
  8
DRAFT
 10
-933.0562424775467
 20
-23.05209396362972
 30
0.0
  0
VERTEX
  5
C7E
  8
DRAFT
 10
-932.9103271232161
 20
-23.05209396362938
 30
0.0
 42
-1.000000000011458
  0
VERTEX
  5
C7F
  8
DRAFT
 10
-932.9103271232161
 20
-23.09209396362888
 30
0.0
  0
VERTEX
  5
C80
  8
DRAFT
 10
-933.0162424775469
 20
-23.09209396362935
 30
0.0
 42
0.4142135623664553
  0
VERTEX
  5
C81
  8
DRAFT
 10
-933.0474924775476
 20
-23.12334396362935
 30
0.0
  0
VERTEX
  5
C82
  8
DRAFT
 10
-933.0474924775465
 20
-23.63045026284198
 30
0.0
 42
0.4142135623616727
  0
VERTEX
  5
C83
  8
DRAFT
 10
-933.0162424775465
 20
-23.66170026284127
 30
0.0
  0
VERTEX
  5
C84
  8
DRAFT
 10
-932.9103271232161
 20
-23.66170026284198
 30
0.0
 42
-1.000000000002842
  0
SEQEND
  5
C85
  8
DRAFT
  0
POLYLINE
  5
C86
  8
DRAFT
 66
     1
 10
0.0
 20
0.0
 30
0.0
 70
     1
  0
VERTEX
  5
C87
  8
DRAFT
 10
-932.359146020854
 20
-25.57331261857048
 30
0.0
  0
VERTEX
  5
C88
  8
DRAFT
 10
-932.2132306665235
 20
-25.57331261857034
 30
0.0
 42
-0.4142135623518318
  0
VERTEX
  5
C89
  8
DRAFT
 10
-932.1819806665236
 20
-25.60456261856979
 30
0.0
  0
VERTEX
  5
C8A
  8
DRAFT
 10
-932.1819806665236
 20
-26.19166891778281
 30
0.0
 42
-0.4142135623829691
  0
VERTEX
  5
C8B
  8
DRAFT
 10
-932.2132306665236
 20
-26.22291891778332
 30
0.0
  0
VERTEX
  5
C8C
  8
DRAFT
 10
-932.3591460208542
 20
-26.22291891778281
 30
0.0
 42
-0.999999999948841
  0
VERTEX
  5
C8D
  8
DRAFT
 10
-932.359146020854
 20
-26.1829189177834
 30
0.0
  0
VERTEX
  5
C8E
  8
DRAFT
 10
-932.2532306665233
 20
-26.18291891778285
 30
0.0
 42
0.414213562365442
  0
VERTEX
  5
C8F
  8
DRAFT
 10
-932.2219806665236
 20
-26.15166891778308
 30
0.0
  0
VERTEX
  5
C90
  8
DRAFT
 10
-932.2219806665237
 20
-25.64456261857021
 30
0.0
 42
0.4142135623897492
  0
VERTEX
  5
C91
  8
DRAFT
 10
-932.2532306665237
 20
-25.61331261857009
 30
0.0
  0
VERTEX
  5
C92
  8
DRAFT
 10
-932.359146020854
 20
-25.61331261857021
 30
0.0
 42
-1.000000000042633
  0
SEQEND
  5
C93
  8
DRAFT
  0
POLYLINE
  5
C94
  8
DRAFT
 66
     1
 10
0.0
 20
0.0
 30
0.0
 70
     1
  0
VERTEX
  5
C95
  8
DRAFT
 10
-932.9103271232161
 20
-25.57331261857048
 30
0.0
  0
VERTEX
  5
C96
  8
DRAFT
 10
-933.0562424775467
 20
-25.57331261857024
 30
0.0
 42
0.4142135623901137
  0
VERTEX
  5
C97
  8
DRAFT
 10
-933.0874924775462
 20
-25.60456261857025
 30
0.0
  0
VERTEX
  5
C98
  8
DRAFT
 10
-933.0874924775467
 20
-26.19166891778281
 30
0.0
 42
0.414213562373154
  0
VERTEX
  5
C99
  8
DRAFT
 10
-933.0562424775467
 20
-26.22291891778245
 30
0.0
  0
VERTEX
  5
C9A
  8
DRAFT
 10
-932.9103271232162
 20
-26.22291891778281
 30
0.0
 42
0.9999999999914734
  0
VERTEX
  5
C9B
  8
DRAFT
 10
-932.9103271232161
 20
-26.18291891778272
 30
0.0
  0
VERTEX
  5
C9C
  8
DRAFT
 10
-933.016242477547
 20
-26.18291891778284
 30
0.0
 42
-0.4142135623630047
  0
VERTEX
  5
C9D
  8
DRAFT
 10
-933.0474924775468
 20
-26.15166891778308
 30
0.0
  0
VERTEX
  5
C9E
  8
DRAFT
 10
-933.0474924775465
 20
-25.64456261857021
 30
0.0
 42
-0.4142135623812727
  0
VERTEX
  5
C9F
  8
DRAFT
 10
-933.0162424775466
 20
-25.61331261857061
 30
0.0
  0
VERTEX
  5
CA0
  8
DRAFT
 10
-932.9103271232161
 20
-25.61331261857021
 30
0.0
 42
1.000000000008438
  0
SEQEND
  5
CA1
  8
DRAFT
  0
POLYLINE
  5
CA2
  8
DRAFT
 66
     1
 10
0.0
 20
0.0
 30
0.0
 70
     1
  0
VERTEX
  5
CA3
  8
DRAFT
 10
-933.8591460208532
 20
-23.70170026284172
 30
0.0
  0
VERTEX
  5
CA4
  8
DRAFT
 10
-933.7132306665227
 20
-23.70170026284195
 30
0.0
 42
0.41421356238375
  0
VERTEX
  5
CA5
  8
DRAFT
 10
-933.6819806665231
 20
-23.67045026284195
 30
0.0
  0
VERTEX
  5
CA6
  8
DRAFT
 10
-933.6819806665227
 20
-23.08334396362938
 30
0.0
 42
0.4142135623666166
  0
VERTEX
  5
CA7
  8
DRAFT
 10
-933.7132306665227
 20
-23.05209396362976
 30
0.0
  0
VERTEX
  5
CA8
  8
DRAFT
 10
-933.8591460208532
 20
-23.05209396362938
 30
0.0
 42
0.9999999999999999
  0
VERTEX
  5
CA9
  8
DRAFT
 10
-933.8591460208532
 20
-23.09209396362888
 30
0.0
  0
VERTEX
  5
CAA
  8
DRAFT
 10
-933.7532306665224
 20
-23.09209396362932
 30
0.0
 42
-0.4142135623748144
  0
VERTEX
  5
CAB
  8
DRAFT
 10
-933.7219806665224
 20
-23.12334396362912
 30
0.0
  0
VERTEX
  5
CAC
  8
DRAFT
 10
-933.7219806665228
 20
-23.63045026284198
 30
0.0
 42
-0.4142135623604396
  0
VERTEX
  5
CAD
  8
DRAFT
 10
-933.7532306665228
 20
-23.66170026284249
 30
0.0
  0
VERTEX
  5
CAE
  8
DRAFT
 10
-933.8591460208532
 20
-23.66170026284198
 30
0.0
 42
1.000000000011369
  0
SEQEND
  5
CAF
  8
DRAFT
  0
POLYLINE
  5
CB0
  8
DRAFT
 66
     1
 10
0.0
 20
0.0
 30
0.0
 70
     1
  0
VERTEX
  5
CB1
  8
DRAFT
 10
-934.4103271232153
 20
-23.70170026284217
 30
0.0
  0
VERTEX
  5
CB2
  8
DRAFT
 10
-934.5562424775459
 20
-23.70170026284195
 30
0.0
 42
-0.4142135623576886
  0
VERTEX
  5
CB3
  8
DRAFT
 10
-934.5874924775455
 20
-23.67045026284195
 30
0.0
  0
VERTEX
  5
CB4
  8
DRAFT
 10
-934.5874924775458
 20
-23.08334396362938
 30
0.0
 42
-0.414213562364331
  0
VERTEX
  5
CB5
  8
DRAFT
 10
-934.5562424775458
 20
-23.05209396362961
 30
0.0
  0
VERTEX
  5
CB6
  8
DRAFT
 10
-934.4103271232153
 20
-23.05209396362938
 30
0.0
 42
-0.9999999999658938
  0
VERTEX
  5
CB7
  8
DRAFT
 10
-934.4103271232152
 20
-23.09209396362899
 30
0.0
  0
VERTEX
  5
CB8
  8
DRAFT
 10
-934.5162424775461
 20
-23.09209396362929
 30
0.0
 42
0.4142135623617102
  0
VERTEX
  5
CB9
  8
DRAFT
 10
-934.5474924775465
 20
-23.12334396362912
 30
0.0
  0
VERTEX
  5
CBA
  8
DRAFT
 10
-934.5474924775457
 20
-23.63045026284198
 30
0.0
 42
0.4142135623591983
  0
VERTEX
  5
CBB
  8
DRAFT
 10
-934.5162424775456
 20
-23.66170026284122
 30
0.0
  0
VERTEX
  5
CBC
  8
DRAFT
 10
-934.4103271232153
 20
-23.66170026284198
 30
0.0
 42
-1.000000000031175
  0
SEQEND
  5
CBD
  8
DRAFT
  0
POLYLINE
  5
CBE
  8
DRAFT
 66
     1
 10
0.0
 20
0.0
 30
0.0
 70
     1
  0
VERTEX
  5
CBF
  8
DRAFT
 10
-933.8591460208532
 20
-25.57331261857048
 30
0.0
  0
VERTEX
  5
CC0
  8
DRAFT
 10
-933.7132306665227
 20
-25.57331261857025
 30
0.0
 42
-0.4142135623502483
  0
VERTEX
  5
CC1
  8
DRAFT
 10
-933.6819806665227
 20
-25.60456261856979
 30
0.0
  0
VERTEX
  5
CC2
  8
DRAFT
 10
-933.6819806665227
 20
-26.19166891778281
 30
0.0
 42
-0.4142135623736697
  0
VERTEX
  5
CC3
  8
DRAFT
 10
-933.7132306665227
 20
-26.22291891778343
 30
0.0
  0
VERTEX
  5
CC4
  8
DRAFT
 10
-933.8591460208532
 20
-26.22291891778281
 30
0.0
 42
-0.9999999999658941
  0
VERTEX
  5
CC5
  8
DRAFT
 10
-933.8591460208532
 20
-26.1829189177834
 30
0.0
  0
VERTEX
  5
CC6
  8
DRAFT
 10
-933.7532306665224
 20
-26.18291891778285
 30
0.0
 42
0.4142135623872887
  0
VERTEX
  5
CC7
  8
DRAFT
 10
-933.7219806665225
 20
-26.15166891778308
 30
0.0
  0
VERTEX
  5
CC8
  8
DRAFT
 10
-933.7219806665229
 20
-25.64456261857021
 30
0.0
 42
0.41421356238003
  0
VERTEX
  5
CC9
  8
DRAFT
 10
-933.7532306665229
 20
-25.61331261856992
 30
0.0
  0
VERTEX
  5
CCA
  8
DRAFT
 10
-933.8591460208532
 20
-25.61331261857021
 30
0.0
 42
-1.000000000028422
  0
SEQEND
  5
CCB
  8
DRAFT
  0
POLYLINE
  5
CCC
  8
DRAFT
 66
     1
 10
0.0
 20
0.0
 30
0.0
 70
     1
  0
VERTEX
  5
CCD
  8
DRAFT
 10
-934.4103271232153
 20
-25.57331261857048
 30
0.0
  0
VERTEX
  5
CCE
  8
DRAFT
 10
-934.5562424775459
 20
-25.57331261857025
 30
0.0
 42
0.4142135623905315
  0
VERTEX
  5
CCF
  8
DRAFT
 10
-934.5874924775452
 20
-25.60456261857025
 30
0.0
  0
VERTEX
  5
CD0
  8
DRAFT
 10
-934.5874924775459
 20
-26.19166891778281
 30
0.0
 42
0.4142135623811111
  0
VERTEX
  5
CD1
  8
DRAFT
 10
-934.5562424775459
 20
-26.22291891778229
 30
0.0
  0
VERTEX
  5
CD2
  8
DRAFT
 10
-934.4103271232153
 20
-26.22291891778281
 30
0.0
 42
0.999999999951683
  0
VERTEX
  5
CD3
  8
DRAFT
 10
-934.4103271232153
 20
-26.18291891778272
 30
0.0
  0
VERTEX
  5
CD4
  8
DRAFT
 10
-934.5162424775461
 20
-26.18291891778285
 30
0.0
 42
-0.4142135623471458
  0
VERTEX
  5
CD5
  8
DRAFT
 10
-934.5474924775465
 20
-26.15166891778308
 30
0.0
  0
VERTEX
  5
CD6
  8
DRAFT
 10
-934.5474924775457
 20
-25.64456261857021
 30
0.0
 42
-0.4142135623523426
  0
VERTEX
  5
CD7
  8
DRAFT
 10
-934.5162424775457
 20
-25.61331261857089
 30
0.0
  0
VERTEX
  5
CD8
  8
DRAFT
 10
-934.4103271232153
 20
-25.61331261857021
 30
0.0
 42
1.000000000034195
  0
SEQEND
  5
CD9
  8
DRAFT
  0
POLYLINE
  5
CDA
  8
DRAFT
 66
     1
 10
0.0
 20
0.0
 30
0.0
 70
     1
  0
VERTEX
  5
CDB
  8
DRAFT
 10
-935.3591460208523
 20
-23.70170026284161
 30
0.0
  0
VERTEX
  5
CDC
  8
DRAFT
 10
-935.2132306665218
 20
-23.70170026284183
 30
0.0
 42
0.4142135623706097
  0
VERTEX
  5
CDD
  8
DRAFT
 10
-935.1819806665227
 20
-23.67045026284183
 30
0.0
  0
VERTEX
  5
CDE
  8
DRAFT
 10
-935.1819806665218
 20
-23.08334396362927
 30
0.0
 42
0.4142135623637666
  0
VERTEX
  5
CDF
  8
DRAFT
 10
-935.2132306665217
 20
-23.0520939636294
 30
0.0
  0
VERTEX
  5
CE0
  8
DRAFT
 10
-935.3591460208523
 20
-23.05209396362927
 30
0.0
 42
0.9999999999914734
  0
VERTEX
  5
CE1
  8
DRAFT
 10
-935.3591460208523
 20
-23.09209396362888
 30
0.0
  0
VERTEX
  5
CE2
  8
DRAFT
 10
-935.2532306665215
 20
-23.09209396362928
 30
0.0
 42
-0.4142135623770152
  0
VERTEX
  5
CE3
  8
DRAFT
 10
-935.2219806665222
 20
-23.12334396362923
 30
0.0
  0
VERTEX
  5
CE4
  8
DRAFT
 10
-935.221980666522
 20
-23.63045026284187
 30
0.0
 42
-0.4142135623752975
  0
VERTEX
  5
CE5
  8
DRAFT
 10
-935.253230666522
 20
-23.66170026284237
 30
0.0
  0
VERTEX
  5
CE6
  8
DRAFT
 10
-935.3591460208523
 20
-23.66170026284187
 30
0.0
 42
0.999999999985789
  0
SEQEND
  5
CE7
  8
DRAFT
  0
POLYLINE
  5
CE8
  8
DRAFT
 66
     1
 10
0.0
 20
0.0
 30
0.0
 70
     1
  0
VERTEX
  5
CE9
  8
DRAFT
 10
-935.9103271232144
 20
-23.70170026284206
 30
0.0
  0
VERTEX
  5
CEA
  8
DRAFT
 10
-936.056242477545
 20
-23.70170026284183
 30
0.0
 42
-0.414213562385346
  0
VERTEX
  5
CEB
  8
DRAFT
 10
-936.0874924775452
 20
-23.67045026284183
 30
0.0
  0
VERTEX
  5
CEC
  8
DRAFT
 10
-936.0874924775449
 20
-23.08334396362927
 30
0.0
 42
-0.4142135623588429
  0
VERTEX
  5
CED
  8
DRAFT
 10
-936.0562424775449
 20
-23.0520939636294
 30
0.0
  0
VERTEX
  5
CEE
  8
DRAFT
 10
-935.9103271232144
 20
-23.05209396362927
 30
0.0
 42
-0.9999999999602095
  0
VERTEX
  5
CEF
  8
DRAFT
 10
-935.9103271232143
 20
-23.0920939636291
 30
0.0
  0
VERTEX
  5
CF0
  8
DRAFT
 10
-936.0162424775452
 20
-23.09209396362923
 30
0.0
 42
0.414213562361074
  0
VERTEX
  5
CF1
  8
DRAFT
 10
-936.0474924775455
 20
-23.12334396362923
 30
0.0
  0
VERTEX
  5
CF2
  8
DRAFT
 10
-936.0474924775448
 20
-23.63045026284187
 30
0.0
 42
0.414213562356991
  0
VERTEX
  5
CF3
  8
DRAFT
 10
-936.0162424775448
 20
-23.66170026284156
 30
0.0
  0
VERTEX
  5
CF4
  8
DRAFT
 10
-935.9103271232144
 20
-23.66170026284187
 30
0.0
 42
-0.9999999999971577
  0
SEQEND
  5
CF5
  8
DRAFT
  0
POLYLINE
  5
CF6
  8
DRAFT
 66
     1
 10
0.0
 20
0.0
 30
0.0
  0
VERTEX
  5
CF7
  8
DRAFT
 10
-936.3847365720329
 20
-25.67627041622933
 30
0.0
 42
-0.1989123673790762
  0
VERTEX
  5
CF8
  8
DRAFT
 10
-936.348124919681
 20
-25.58788206858133
 30
0.0
  0
VERTEX
  5
CF9
  8
DRAFT
 10
-936.0215412934634
 20
-25.26129844236273
 30
0.0
 42
0.1989123673805748
  0
VERTEX
  5
CFA
  8
DRAFT
 10
-935.9300121625846
 20
-25.04032757324133
 30
0.0
  0
VERTEX
  5
CFB
  8
DRAFT
 10
-935.9300121625847
 20
-25.01228899652308
 30
0.0
 42
1.0000000000363
  0
VERTEX
  5
CFC
  8
DRAFT
 10
-935.977382241324
 20
-25.01228899652308
 30
0.0
  0
VERTEX
  5
CFD
  8
DRAFT
 10
-935.9773822413243
 20
-25.03112910948773
 30
0.0
 42
-0.1989123673821356
  0
VERTEX
  5
CFE
  8
DRAFT
 10
-936.0689113722033
 20
-25.25209997860775
 30
0.0
  0
VERTEX
  5
CFF
  8
DRAFT
 10
-936.2365351544128
 20
-25.41972376081779
 30
0.0
 42
-0.6681786379186903
  0
VERTEX
  5
D00
  8
DRAFT
 10
-936.2898822413251
 20
-25.3976266739058
 30
0.0
  0
VERTEX
  5
D01
  8
DRAFT
 10
-936.2898822413241
 20
-25.01228899652831
 30
0.0
 42
-0.3453056976026046
  0
VERTEX
  5
D02
  8
DRAFT
 10
-936.0338866430227
 20
-24.68580770419872
 30
0.0
 42
-0.1210102841095175
  0
VERTEX
  5
D03
  8
DRAFT
 10
-935.2355865010438
 20
-24.68580770419923
 30
0.0
 42
-0.3453056976031724
  0
VERTEX
  5
D04
  8
DRAFT
 10
-934.9795909027429
 20
-25.01228899652808
 30
0.0
  0
VERTEX
  5
D05
  8
DRAFT
 10
-934.9795909027418
 20
-25.39762667390557
 30
0.0
 42
-0.668178637936966
  0
VERTEX
  5
D06
  8
DRAFT
 10
-935.032937989654
 20
-25.41972376081789
 30
0.0
  0
VERTEX
  5
D07
  8
DRAFT
 10
-935.2005617718635
 20
-25.25209997860753
 30
0.0
 42
-0.1989123673795434
  0
VERTEX
  5
D08
  8
DRAFT
 10
-935.2920909027417
 20
-25.03112910948772
 30
0.0
  0
VERTEX
  5
D09
  8
DRAFT
 10
-935.2920909027424
 20
-25.01228899652308
 30
0.0
 42
1.000000000069899
  0
VERTEX
  5
D0A
  8
DRAFT
 10
-935.3394609814819
 20
-25.01228899652285
 30
0.0
  0
VERTEX
  5
D0B
  8
DRAFT
 10
-935.3394609814821
 20
-25.04032757324155
 30
0.0
 42
0.1989123673841534
  0
VERTEX
  5
D0C
  8
DRAFT
 10
-935.2479318506032
 20
-25.2612984423627
 30
0.0
  0
VERTEX
  5
D0D
  8
DRAFT
 10
-934.9213482243857
 20
-25.587882068581
 30
0.0
 42
-0.1989123673814417
  0
VERTEX
  5
D0E
  8
DRAFT
 10
-934.884736572034
 20
-25.67627041622911
 30
0.0
 42
-0.1989123673766638
  0
VERTEX
  5
D0F
  8
DRAFT
 10
-934.848124919682
 20
-25.58788206858113
 30
0.0
  0
VERTEX
  5
D10
  8
DRAFT
 10
-934.5215412934643
 20
-25.26129844236283
 30
0.0
 42
0.1989123673807819
  0
VERTEX
  5
D11
  8
DRAFT
 10
-934.4300121625855
 20
-25.04032757324144
 30
0.0
  0
VERTEX
  5
D12
  8
DRAFT
 10
-934.4300121625855
 20
-25.01228899652319
 30
0.0
 42
1.000000000043499
  0
VERTEX
  5
D13
  8
DRAFT
 10
-934.477382241325
 20
-25.01228899652319
 30
0.0
  0
VERTEX
  5
D14
  8
DRAFT
 10
-934.4773822413254
 20
-25.03112910948784
 30
0.0
 42
-0.1989123673778602
  0
VERTEX
  5
D15
  8
DRAFT
 10
-934.5689113722043
 20
-25.2520999786075
 30
0.0
  0
VERTEX
  5
D16
  8
DRAFT
 10
-934.7365351544137
 20
-25.41972376081794
 30
0.0
 42
-0.6681786379339287
  0
VERTEX
  5
D17
  8
DRAFT
 10
-934.7898822413252
 20
-25.39762667390591
 30
0.0
  0
VERTEX
  5
D18
  8
DRAFT
 10
-934.7898822413252
 20
-25.01228899652831
 30
0.0
 42
-0.3453056975988786
  0
VERTEX
  5
D19
  8
DRAFT
 10
-934.5338866430236
 20
-24.68580770419945
 30
0.0
 42
-0.1210102841100194
  0
VERTEX
  5
D1A
  8
DRAFT
 10
-933.7355865010447
 20
-24.68580770419925
 30
0.0
 42
-0.3453056976002571
  0
VERTEX
  5
D1B
  8
DRAFT
 10
-933.4795909027436
 20
-25.0122889965282
 30
0.0
  0
VERTEX
  5
D1C
  8
DRAFT
 10
-933.4795909027428
 20
-25.39762667390568
 30
0.0
 42
-0.6681786379176445
  0
VERTEX
  5
D1D
  8
DRAFT
 10
-933.5329379896547
 20
-25.41972376081795
 30
0.0
  0
VERTEX
  5
D1E
  8
DRAFT
 10
-933.7005617718644
 20
-25.25209997860764
 30
0.0
 42
-0.1989123673800491
  0
VERTEX
  5
D1F
  8
DRAFT
 10
-933.7920909027429
 20
-25.03112910948784
 30
0.0
  0
VERTEX
  5
D20
  8
DRAFT
 10
-933.7920909027432
 20
-25.01228899652319
 30
0.0
 42
1.0000000000027
  0
VERTEX
  5
D21
  8
DRAFT
 10
-933.839460981482
 20
-25.01228899652319
 30
0.0
  0
VERTEX
  5
D22
  8
DRAFT
 10
-933.8394609814831
 20
-25.04032757324166
 30
0.0
 42
0.1989123673805192
  0
VERTEX
  5
D23
  8
DRAFT
 10
-933.747931850604
 20
-25.26129844236282
 30
0.0
  0
VERTEX
  5
D24
  8
DRAFT
 10
-933.4213482243866
 20
-25.58788206858113
 30
0.0
 42
-0.1989123673828981
  0
VERTEX
  5
D25
  8
DRAFT
 10
-933.3847365720346
 20
-25.67627041622922
 30
0.0
 42
-0.198912367373084
  0
VERTEX
  5
D26
  8
DRAFT
 10
-933.3481249196831
 20
-25.58788206858064
 30
0.0
  0
VERTEX
  5
D27
  8
DRAFT
 10
-933.0215412934652
 20
-25.26129844236283
 30
0.0
 42
0.1989123673808041
  0
VERTEX
  5
D28
  8
DRAFT
 10
-932.9300121625863
 20
-25.04032757324144
 30
0.0
  0
VERTEX
  5
D29
  8
DRAFT
 10
-932.9300121625863
 20
-25.01228899652319
 30
0.0
 42
1.000000000050699
  0
VERTEX
  5
D2A
  8
DRAFT
 10
-932.9773822413251
 20
-25.01228899652319
 30
0.0
  0
VERTEX
  5
D2B
  8
DRAFT
 10
-932.977382241326
 20
-25.03112910948784
 30
0.0
 42
-0.1989123673777994
  0
VERTEX
  5
D2C
  8
DRAFT
 10
-933.068911372205
 20
-25.25209997860814
 30
0.0
  0
VERTEX
  5
D2D
  8
DRAFT
 10
-933.2365351544146
 20
-25.41972376081794
 30
0.0
 42
-0.668178637916102
  0
VERTEX
  5
D2E
  8
DRAFT
 10
-933.289882241327
 20
-25.39762667390591
 30
0.0
  0
VERTEX
  5
D2F
  8
DRAFT
 10
-933.2898822413259
 20
-25.01228899652842
 30
0.0
 42
-0.3453056976012365
  0
VERTEX
  5
D30
  8
DRAFT
 10
-933.0338866430246
 20
-24.68580770419861
 30
0.0
 42
-0.1210102841102048
  0
VERTEX
  5
D31
  8
DRAFT
 10
-932.2355865010456
 20
-24.68580770419906
 30
0.0
 42
-0.3453056976010237
  0
VERTEX
  5
D32
  8
DRAFT
 10
-931.9795909027445
 20
-25.01228899652819
 30
0.0
  0
VERTEX
  5
D33
  8
DRAFT
 10
-931.9795909027436
 20
-25.39762667390568
 30
0.0
 42
-0.66817863791231
  0
VERTEX
  5
D34
  8
DRAFT
 10
-932.0329379896556
 20
-25.41972376081816
 30
0.0
  0
VERTEX
  5
D35
  8
DRAFT
 10
-932.2005617718653
 20
-25.25209997860765
 30
0.0
 42
-0.1989123673791028
  0
VERTEX
  5
D36
  8
DRAFT
 10
-932.2920909027437
 20
-25.03112910948784
 30
0.0
  0
VERTEX
  5
D37
  8
DRAFT
 10
-932.2920909027441
 20
-25.01228899652319
 30
0.0
 42
1.000000000057899
  0
VERTEX
  5
D38
  8
DRAFT
 10
-932.3394609814832
 20
-25.01228899652319
 30
0.0
  0
VERTEX
  5
D39
  8
DRAFT
 10
-932.339460981484
 20
-25.04032757324166
 30
0.0
 42
0.1989123673809831
  0
VERTEX
  5
D3A
  8
DRAFT
 10
-932.247931850605
 20
-25.26129844236261
 30
0.0
  0
VERTEX
  5
D3B
  8
DRAFT
 10
-931.9213482243874
 20
-25.58788206858112
 30
0.0
 42
-0.1989123673828978
  0
VERTEX
  5
D3C
  8
DRAFT
 10
-931.8847365720358
 20
-25.67627041622923
 30
0.0
  0
SEQEND
  5
D3D
  8
DRAFT
  0
POLYLINE
  5
D3E
  8
DRAFT
 66
     1
 10
0.0
 20
0.0
 30
0.0
 70
     1
  0
VERTEX
  5
D3F
  8
DRAFT
 10
-935.3591460208523
 20
-25.57331261857036
 30
0.0
  0
VERTEX
  5
D40
  8
DRAFT
 10
-935.2132306665218
 20
-25.57331261857014
 30
0.0
 42
-0.4142135623651243
  0
VERTEX
  5
D41
  8
DRAFT
 10
-935.1819806665219
 20
-25.60456261856991
 30
0.0
  0
VERTEX
  5
D42
  8
DRAFT
 10
-935.1819806665218
 20
-26.1916689177827
 30
0.0
 42
-0.4142135623839483
  0
VERTEX
  5
D43
  8
DRAFT
 10
-935.2132306665218
 20
-26.22291891778309
 30
0.0
  0
VERTEX
  5
D44
  8
DRAFT
 10
-935.3591460208523
 20
-26.2229189177827
 30
0.0
 42
-0.9999999999772625
  0
VERTEX
  5
D45
  8
DRAFT
 10
-935.3591460208524
 20
-26.18291891778306
 30
0.0
  0
VERTEX
  5
D46
  8
DRAFT
 10
-935.2532306665215
 20
-26.18291891778274
 30
0.0
 42
0.4142135623749256
  0
VERTEX
  5
D47
  8
DRAFT
 10
-935.2219806665222
 20
-26.15166891778296
 30
0.0
  0
VERTEX
  5
D48
  8
DRAFT
 10
-935.221980666522
 20
-25.6445626185701
 30
0.0
 42
0.4142135623900239
  0
VERTEX
  5
D49
  8
DRAFT
 10
-935.253230666522
 20
-25.61331261857003
 30
0.0
  0
VERTEX
  5
D4A
  8
DRAFT
 10
-935.3591460208523
 20
-25.6133126185701
 30
0.0
 42
-1.000000000025668
  0
SEQEND
  5
D4B
  8
DRAFT
  0
POLYLINE
  5
D4C
  8
DRAFT
 66
     1
 10
0.0
 20
0.0
 30
0.0
 70
     1
  0
VERTEX
  5
D4D
  8
DRAFT
 10
-935.9103271232144
 20
-25.57331261857036
 30
0.0
  0
VERTEX
  5
D4E
  8
DRAFT
 10
-936.056242477545
 20
-25.57331261857013
 30
0.0
 42
0.4142135623891248
  0
VERTEX
  5
D4F
  8
DRAFT
 10
-936.0874924775445
 20
-25.60456261857014
 30
0.0
  0
VERTEX
  5
D50
  8
DRAFT
 10
-936.087492477545
 20
-26.1916689177827
 30
0.0
 42
0.4142135623775767
  0
VERTEX
  5
D51
  8
DRAFT
 10
-936.056242477545
 20
-26.22291891778224
 30
0.0
  0
VERTEX
  5
D52
  8
DRAFT
 10
-935.9103271232144
 20
-26.2229189177827
 30
0.0
 42
0.9999999999715782
  0
VERTEX
  5
D53
  8
DRAFT
 10
-935.9103271232144
 20
-26.18291891778306
 30
0.0
  0
VERTEX
  5
D54
  8
DRAFT
 10
-936.0162424775452
 20
-26.18291891778274
 30
0.0
 42
-0.4142135623527736
  0
VERTEX
  5
D55
  8
DRAFT
 10
-936.0474924775453
 20
-26.15166891778296
 30
0.0
  0
VERTEX
  5
D56
  8
DRAFT
 10
-936.0474924775448
 20
-25.6445626185701
 30
0.0
 42
-0.4142135623559294
  0
VERTEX
  5
D57
  8
DRAFT
 10
-936.0162424775448
 20
-25.61331261857065
 30
0.0
  0
VERTEX
  5
D58
  8
DRAFT
 10
-935.9103271232144
 20
-25.6133126185701
 30
0.0
 42
1.000000000048228
  0
SEQEND
  5
D59
  8
DRAFT
  0
POLYLINE
  5
D5A
  8
DRAFT
 66
     1
 10
0.0
 20
0.0
 30
0.0
  0
VERTEX
  5
D5B
  8
DRAFT
 10
-931.8847365720358
 20
-34.39393749806977
 30
0.0
 42
-0.1989123673734495
  0
VERTEX
  5
D5C
  8
DRAFT
 10
-931.9213482243875
 20
-34.48232584571787
 30
0.0
  0
VERTEX
  5
D5D
  8
DRAFT
 10
-932.2479318506051
 20
-34.80890947193638
 30
0.0
 42
0.1989123673798039
  0
VERTEX
  5
D5E
  8
DRAFT
 10
-932.3394609814842
 20
-35.02988034105732
 30
0.0
  0
VERTEX
  5
D5F
  8
DRAFT
 10
-932.3394609814841
 20
-35.0579189177758
 30
0.0
 42
1.00000000003345
  0
VERTEX
  5
D60
  8
DRAFT
 10
-932.2920909027446
 20
-35.0579189177758
 30
0.0
  0
VERTEX
  5
D61
  8
DRAFT
 10
-932.2920909027443
 20
-35.03907880481115
 30
0.0
 42
-0.1989123673805613
  0
VERTEX
  5
D62
  8
DRAFT
 10
-932.2005617718654
 20
-34.81810793569098
 30
0.0
  0
VERTEX
  5
D63
  8
DRAFT
 10
-932.0329379896558
 20
-34.65048415348128
 30
0.0
 42
-0.6681786379503638
  0
VERTEX
  5
D64
  8
DRAFT
 10
-931.9795909027431
 20
-34.67258124039331
 30
0.0
  0
VERTEX
  5
D65
  8
DRAFT
 10
-931.9795909027443
 20
-35.0579189177708
 30
0.0
 42
-0.3453056976023643
  0
VERTEX
  5
D66
  8
DRAFT
 10
-932.2355865010459
 20
-35.38440021009972
 30
0.0
 42
-0.1210102841098141
  0
VERTEX
  5
D67
  8
DRAFT
 10
-933.0338866430246
 20
-35.38440021009972
 30
0.0
 42
-0.3453056976016256
  0
VERTEX
  5
D68
  8
DRAFT
 10
-933.2898822413255
 20
-35.05791891777079
 30
0.0
  0
VERTEX
  5
D69
  8
DRAFT
 10
-933.2898822413268
 20
-34.67258124039308
 30
0.0
 42
-0.6681786379141398
  0
VERTEX
  5
D6A
  8
DRAFT
 10
-933.2365351544148
 20
-34.65048415348184
 30
0.0
  0
VERTEX
  5
D6B
  8
DRAFT
 10
-933.0689113722051
 20
-34.81810793569113
 30
0.0
 42
-0.1989123673798926
  0
VERTEX
  5
D6C
  8
DRAFT
 10
-932.9773822413264
 20
-35.03907880481138
 30
0.0
  0
VERTEX
  5
D6D
  8
DRAFT
 10
-932.9773822413263
 20
-35.0579189177758
 30
0.0
 42
1.00000000002145
  0
VERTEX
  5
D6E
  8
DRAFT
 10
-932.9300121625861
 20
-35.0579189177758
 30
0.0
  0
VERTEX
  5
D6F
  8
DRAFT
 10
-932.9300121625864
 20
-35.02988034105756
 30
0.0
 42
0.198912367382753
  0
VERTEX
  5
D70
  8
DRAFT
 10
-933.0215412934652
 20
-34.80890947193636
 30
0.0
  0
VERTEX
  5
D71
  8
DRAFT
 10
-933.348124919683
 20
-34.48232584571787
 30
0.0
 42
-0.1989123673751388
  0
VERTEX
  5
D72
  8
DRAFT
 10
-933.384736572035
 20
-34.39393749806977
 30
0.0
 42
-0.1989123673831587
  0
VERTEX
  5
D73
  8
DRAFT
 10
-933.4213482243865
 20
-34.48232584571792
 30
0.0
  0
VERTEX
  5
D74
  8
DRAFT
 10
-933.7479318506043
 20
-34.80890947193636
 30
0.0
 42
0.19891236737928
  0
VERTEX
  5
D75
  8
DRAFT
 10
-933.8394609814833
 20
-35.02988034105732
 30
0.0
  0
VERTEX
  5
D76
  8
DRAFT
 10
-933.8394609814833
 20
-35.0579189177758
 30
0.0
 42
1.000000000052649
  0
VERTEX
  5
D77
  8
DRAFT
 10
-933.7920909027429
 20
-35.0579189177758
 30
0.0
  0
VERTEX
  5
D78
  8
DRAFT
 10
-933.7920909027434
 20
-35.03907880481115
 30
0.0
 42
-0.1989123673797477
  0
VERTEX
  5
D79
  8
DRAFT
 10
-933.7005617718646
 20
-34.81810793569115
 30
0.0
  0
VERTEX
  5
D7A
  8
DRAFT
 10
-933.5329379896551
 20
-34.65048415348119
 30
0.0
 42
-0.668178637941819
  0
VERTEX
  5
D7B
  8
DRAFT
 10
-933.4795909027422
 20
-34.67258124039331
 30
0.0
  0
VERTEX
  5
D7C
  8
DRAFT
 10
-933.4795909027436
 20
-35.0579189177708
 30
0.0
 42
-0.3453056975994338
  0
VERTEX
  5
D7D
  8
DRAFT
 10
-933.735586501045
 20
-35.38440021009986
 30
0.0
 42
-0.1210102841106225
  0
VERTEX
  5
D7E
  8
DRAFT
 10
-934.533886643024
 20
-35.3844002101
 30
0.0
 42
-0.3453056975999027
  0
VERTEX
  5
D7F
  8
DRAFT
 10
-934.7898822413255
 20
-35.0579189177708
 30
0.0
  0
VERTEX
  5
D80
  8
DRAFT
 10
-934.7898822413257
 20
-34.67258124039297
 30
0.0
 42
-0.6681786379148112
  0
VERTEX
  5
D81
  8
DRAFT
 10
-934.7365351544139
 20
-34.6504841534811
 30
0.0
  0
VERTEX
  5
D82
  8
DRAFT
 10
-934.5689113722043
 20
-34.81810793569113
 30
0.0
 42
-0.1989123673782956
  0
VERTEX
  5
D83
  8
DRAFT
 10
-934.4773822413254
 20
-35.03907880481104
 30
0.0
  0
VERTEX
  5
D84
  8
DRAFT
 10
-934.4773822413254
 20
-35.0579189177758
 30
0.0
 42
1.00000000000465
  0
VERTEX
  5
D85
  8
DRAFT
 10
-934.4300121625854
 20
-35.0579189177758
 30
0.0
  0
VERTEX
  5
D86
  8
DRAFT
 10
-934.4300121625856
 20
-35.02988034105756
 30
0.0
 42
0.1989123673834364
  0
VERTEX
  5
D87
  8
DRAFT
 10
-934.5215412934645
 20
-34.80890947193608
 30
0.0
  0
VERTEX
  5
D88
  8
DRAFT
 10
-934.848124919682
 20
-34.48232584571776
 30
0.0
 42
-0.1989123673768874
  0
VERTEX
  5
D89
  8
DRAFT
 10
-934.8847365720342
 20
-34.39393749806977
 30
0.0
 42
-0.1989123673780452
  0
VERTEX
  5
D8A
  8
DRAFT
 10
-934.9213482243858
 20
-34.48232584571772
 30
0.0
  0
VERTEX
  5
D8B
  8
DRAFT
 10
-935.2479318506034
 20
-34.80890947193629
 30
0.0
 42
0.1989123673797108
  0
VERTEX
  5
D8C
  8
DRAFT
 10
-935.3394609814821
 20
-35.02988034105721
 30
0.0
  0
VERTEX
  5
D8D
  8
DRAFT
 10
-935.3394609814823
 20
-35.05791891777569
 30
0.0
 42
1.00000000002865
  0
VERTEX
  5
D8E
  8
DRAFT
 10
-935.2920909027432
 20
-35.05791891777569
 30
0.0
  0
VERTEX
  5
D8F
  8
DRAFT
 10
-935.2920909027424
 20
-35.03907880481103
 30
0.0
 42
-0.19891236738056
  0
VERTEX
  5
D90
  8
DRAFT
 10
-935.2005617718638
 20
-34.81810793569122
 30
0.0
  0
VERTEX
  5
D91
  8
DRAFT
 10
-935.0329379896541
 20
-34.65048415348114
 30
0.0
 42
-0.6681786379317157
  0
VERTEX
  5
D92
  8
DRAFT
 10
-934.9795909027413
 20
-34.67258124039297
 30
0.0
  0
VERTEX
  5
D93
  8
DRAFT
 10
-934.9795909027426
 20
-35.05791891777069
 30
0.0
 42
-0.3453056975999196
  0
VERTEX
  5
D94
  8
DRAFT
 10
-935.2355865010439
 20
-35.38440021009978
 30
0.0
 42
-0.1210102841096757
  0
VERTEX
  5
D95
  8
DRAFT
 10
-936.033886643023
 20
-35.38440021009963
 30
0.0
 42
-0.3453056976012592
  0
VERTEX
  5
D96
  8
DRAFT
 10
-936.2898822413243
 20
-35.05791891777045
 30
0.0
  0
VERTEX
  5
D97
  8
DRAFT
 10
-936.2898822413251
 20
-34.67258124039297
 30
0.0
 42
-0.6681786379211929
  0
VERTEX
  5
D98
  8
DRAFT
 10
-936.2365351544129
 20
-34.65048415348106
 30
0.0
  0
VERTEX
  5
D99
  8
DRAFT
 10
-936.0689113722034
 20
-34.81810793569099
 30
0.0
 42
-0.1989123673769561
  0
VERTEX
  5
D9A
  8
DRAFT
 10
-935.9773822413242
 20
-35.03907880481104
 30
0.0
  0
VERTEX
  5
D9B
  8
DRAFT
 10
-935.9773822413244
 20
-35.05791891777569
 30
0.0
 42
1.00000000003105
  0
VERTEX
  5
D9C
  8
DRAFT
 10
-935.9300121625847
 20
-35.05791891777569
 30
0.0
  0
VERTEX
  5
D9D
  8
DRAFT
 10
-935.9300121625846
 20
-35.02988034105744
 30
0.0
 42
0.1989123673805757
  0
VERTEX
  5
D9E
  8
DRAFT
 10
-936.0215412934635
 20
-34.80890947193603
 30
0.0
  0
VERTEX
  5
D9F
  8
DRAFT
 10
-936.3481249196811
 20
-34.48232584571776
 30
0.0
 42
-0.1989123673804171
  0
VERTEX
  5
DA0
  8
DRAFT
 10
-936.3847365720333
 20
-34.39393749806965
 30
0.0
  0
SEQEND
  5
DA1
  8
DRAFT
  0
POLYLINE
  5
DA2
  8
DRAFT
 66
     1
 10
0.0
 20
0.0
 30
0.0
 70
     1
  0
VERTEX
  5
DA3
  8
DRAFT
 10
-932.3591460208543
 20
-34.49689529572851
 30
0.0
  0
VERTEX
  5
DA4
  8
DRAFT
 10
-932.2132306665237
 20
-34.49689529572882
 30
0.0
 42
0.4142135623615034
  0
VERTEX
  5
DA5
  8
DRAFT
 10
-932.181980666524
 20
-34.46564529572897
 30
0.0
  0
VERTEX
  5
DA6
  8
DRAFT
 10
-932.1819806665237
 20
-33.87853899651618
 30
0.0
 42
0.4142135623784072
  0
VERTEX
  5
DA7
  8
DRAFT
 10
-932.2132306665237
 20
-33.847288996516
 30
0.0
  0
VERTEX
  5
DA8
  8
DRAFT
 10
-932.3591460208543
 20
-33.84728899651618
 30
0.0
 42
0.9999999999856114
  0
VERTEX
  5
DA9
  8
DRAFT
 10
-932.3591460208543
 20
-33.88728899651556
 30
0.0
  0
VERTEX
  5
DAA
  8
DRAFT
 10
-932.2532306665235
 20
-33.88728899651614
 30
0.0
 42
-0.4142135623808954
  0
VERTEX
  5
DAB
  8
DRAFT
 10
-932.2219806665238
 20
-33.91853899651569
 30
0.0
  0
VERTEX
  5
DAC
  8
DRAFT
 10
-932.2219806665239
 20
-34.42564529572878
 30
0.0
 42
-0.4142135623776894
  0
VERTEX
  5
DAD
  8
DRAFT
 10
-932.2532306665238
 20
-34.45689529572888
 30
0.0
  0
VERTEX
  5
DAE
  8
DRAFT
 10
-932.3591460208543
 20
-34.45689529572878
 30
0.0
 42
1.000000000019895
  0
SEQEND
  5
DAF
  8
DRAFT
  0
POLYLINE
  5
DB0
  8
DRAFT
 66
     1
 10
0.0
 20
0.0
 30
0.0
 70
     1
  0
VERTEX
  5
DB1
  8
DRAFT
 10
-932.9103271232163
 20
-34.49689529572897
 30
0.0
  0
VERTEX
  5
DB2
  8
DRAFT
 10
-933.0562424775469
 20
-34.49689529572874
 30
0.0
 42
-0.414213562385034
  0
VERTEX
  5
DB3
  8
DRAFT
 10
-933.0874924775469
 20
-34.46564529572874
 30
0.0
  0
VERTEX
  5
DB4
  8
DRAFT
 10
-933.087492477547
 20
-33.87853899651618
 30
0.0
 42
-0.4142135623847757
  0
VERTEX
  5
DB5
  8
DRAFT
 10
-933.0562424775468
 20
-33.84728899651638
 30
0.0
  0
VERTEX
  5
DB6
  8
DRAFT
 10
-932.9103271232163
 20
-33.84728899651618
 30
0.0
 42
-0.9999999999770849
  0
VERTEX
  5
DB7
  8
DRAFT
 10
-932.9103271232162
 20
-33.88728899651556
 30
0.0
  0
VERTEX
  5
DB8
  8
DRAFT
 10
-933.0162424775472
 20
-33.88728899651613
 30
0.0
 42
0.4142135623719815
  0
VERTEX
  5
DB9
  8
DRAFT
 10
-933.0474924775464
 20
-33.91853899651614
 30
0.0
  0
VERTEX
  5
DBA
  8
DRAFT
 10
-933.0474924775467
 20
-34.42564529572878
 30
0.0
 42
0.4142135623611388
  0
VERTEX
  5
DBB
  8
DRAFT
 10
-933.0162424775466
 20
-34.45689529572839
 30
0.0
  0
VERTEX
  5
DBC
  8
DRAFT
 10
-932.9103271232163
 20
-34.45689529572878
 30
0.0
 42
-1.000000000034106
  0
SEQEND
  5
DBD
  8
DRAFT
  0
POLYLINE
  5
DBE
  8
DRAFT
 66
     1
 10
0.0
 20
0.0
 30
0.0
 70
     1
  0
VERTEX
  5
DBF
  8
DRAFT
 10
-933.8591460208534
 20
-34.49689529572851
 30
0.0
  0
VERTEX
  5
DC0
  8
DRAFT
 10
-933.7132306665228
 20
-34.49689529572874
 30
0.0
 42
0.414213562380648
  0
VERTEX
  5
DC1
  8
DRAFT
 10
-933.6819806665231
 20
-34.46564529572897
 30
0.0
  0
VERTEX
  5
DC2
  8
DRAFT
 10
-933.6819806665228
 20
-33.87853899651618
 30
0.0
 42
0.4142135623756362
  0
VERTEX
  5
DC3
  8
DRAFT
 10
-933.7132306665228
 20
-33.84728899651589
 30
0.0
  0
VERTEX
  5
DC4
  8
DRAFT
 10
-933.8591460208534
 20
-33.84728899651618
 30
0.0
 42
0.9999999999941379
  0
VERTEX
  5
DC5
  8
DRAFT
 10
-933.8591460208534
 20
-33.88728899651556
 30
0.0
  0
VERTEX
  5
DC6
  8
DRAFT
 10
-933.7532306665225
 20
-33.88728899651614
 30
0.0
 42
-0.4142135623727589
  0
VERTEX
  5
DC7
  8
DRAFT
 10
-933.7219806665232
 20
-33.91853899651591
 30
0.0
  0
VERTEX
  5
DC8
  8
DRAFT
 10
-933.721980666523
 20
-34.42564529572878
 30
0.0
 42
-0.4142135623791472
  0
VERTEX
  5
DC9
  8
DRAFT
 10
-933.753230666523
 20
-34.45689529572877
 30
0.0
  0
VERTEX
  5
DCA
  8
DRAFT
 10
-933.8591460208534
 20
-34.45689529572878
 30
0.0
 42
1.000000000045475
  0
SEQEND
  5
DCB
  8
DRAFT
  0
POLYLINE
  5
DCC
  8
DRAFT
 66
     1
 10
0.0
 20
0.0
 30
0.0
 70
     1
  0
VERTEX
  5
DCD
  8
DRAFT
 10
-934.4103271232154
 20
-34.49689529572897
 30
0.0
  0
VERTEX
  5
DCE
  8
DRAFT
 10
-934.556242477546
 20
-34.49689529572868
 30
0.0
 42
-0.4142135623729537
  0
VERTEX
  5
DCF
  8
DRAFT
 10
-934.5874924775462
 20
-34.46564529572851
 30
0.0
  0
VERTEX
  5
DD0
  8
DRAFT
 10
-934.587492477546
 20
-33.87853899651618
 30
0.0
 42
-0.4142135623788976
  0
VERTEX
  5
DD1
  8
DRAFT
 10
-934.5562424775461
 20
-33.84728899651611
 30
0.0
  0
VERTEX
  5
DD2
  8
DRAFT
 10
-934.4103271232154
 20
-33.84728899651618
 30
0.0
 42
-0.9999999999827692
  0
VERTEX
  5
DD3
  8
DRAFT
 10
-934.4103271232153
 20
-33.88728899651533
 30
0.0
  0
VERTEX
  5
DD4
  8
DRAFT
 10
-934.5162424775463
 20
-33.88728899651614
 30
0.0
 42
0.4142135623644941
  0
VERTEX
  5
DD5
  8
DRAFT
 10
-934.5474924775461
 20
-33.91853899651614
 30
0.0
  0
VERTEX
  5
DD6
  8
DRAFT
 10
-934.5474924775458
 20
-34.42564529572878
 30
0.0
 42
0.4142135623580928
  0
VERTEX
  5
DD7
  8
DRAFT
 10
-934.5162424775458
 20
-34.45689529572873
 30
0.0
  0
VERTEX
  5
DD8
  8
DRAFT
 10
-934.4103271232154
 20
-34.45689529572878
 30
0.0
 42
-0.9999999999799271
  0
SEQEND
  5
DD9
  8
DRAFT
  0
POLYLINE
  5
DDA
  8
DRAFT
 66
     1
 10
0.0
 20
0.0
 30
0.0
 70
     1
  0
VERTEX
  5
DDB
  8
DRAFT
 10
-935.3591460208524
 20
-34.4968952957284
 30
0.0
  0
VERTEX
  5
DDC
  8
DRAFT
 10
-935.2132306665219
 20
-34.49689529572861
 30
0.0
 42
0.4142135623629346
  0
VERTEX
  5
DDD
  8
DRAFT
 10
-935.1819806665217
 20
-34.46564529572886
 30
0.0
  0
VERTEX
  5
DDE
  8
DRAFT
 10
-935.1819806665219
 20
-33.87853899651606
 30
0.0
 42
0.4142135623805338
  0
VERTEX
  5
DDF
  8
DRAFT
 10
-935.2132306665219
 20
-33.84728899651634
 30
0.0
  0
VERTEX
  5
DE0
  8
DRAFT
 10
-935.3591460208524
 20
-33.84728899651606
 30
0.0
 42
0.9999999999685584
  0
VERTEX
  5
DE1
  8
DRAFT
 10
-935.3591460208526
 20
-33.8872889965159
 30
0.0
  0
VERTEX
  5
DE2
  8
DRAFT
 10
-935.2532306665216
 20
-33.88728899651603
 30
0.0
 42
-0.4142135623656067
  0
VERTEX
  5
DE3
  8
DRAFT
 10
-935.221980666522
 20
-33.9185389965158
 30
0.0
  0
VERTEX
  5
DE4
  8
DRAFT
 10
-935.2219806665221
 20
-34.42564529572866
 30
0.0
 42
-0.4142135623846421
  0
VERTEX
  5
DE5
  8
DRAFT
 10
-935.2532306665221
 20
-34.45689529572934
 30
0.0
  0
VERTEX
  5
DE6
  8
DRAFT
 10
-935.3591460208524
 20
-34.45689529572866
 30
0.0
 42
1.000000000019717
  0
SEQEND
  5
DE7
  8
DRAFT
  0
POLYLINE
  5
DE8
  8
DRAFT
 66
     1
 10
0.0
 20
0.0
 30
0.0
 70
     1
  0
VERTEX
  5
DE9
  8
DRAFT
 10
-935.9103271232145
 20
-34.49689529572886
 30
0.0
  0
VERTEX
  5
DEA
  8
DRAFT
 10
-936.0562424775451
 20
-34.49689529572863
 30
0.0
 42
-0.4142135623609568
  0
VERTEX
  5
DEB
  8
DRAFT
 10
-936.0874924775454
 20
-34.46564529572886
 30
0.0
  0
VERTEX
  5
DEC
  8
DRAFT
 10
-936.0874924775451
 20
-33.87853899651606
 30
0.0
 42
-0.4142135623727918
  0
VERTEX
  5
DED
  8
DRAFT
 10
-936.0562424775451
 20
-33.8472889965165
 30
0.0
  0
VERTEX
  5
DEE
  8
DRAFT
 10
-935.9103271232145
 20
-33.84728899651606
 30
0.0
 42
-0.9999999999770849
  0
VERTEX
  5
DEF
  8
DRAFT
 10
-935.9103271232145
 20
-33.88728899651567
 30
0.0
  0
VERTEX
  5
DF0
  8
DRAFT
 10
-936.0162424775453
 20
-33.88728899651603
 30
0.0
 42
0.4142135623535146
  0
VERTEX
  5
DF1
  8
DRAFT
 10
-936.0474924775452
 20
-33.91853899651625
 30
0.0
  0
VERTEX
  5
DF2
  8
DRAFT
 10
-936.0474924775449
 20
-34.42564529572866
 30
0.0
 42
0.4142135623601403
  0
VERTEX
  5
DF3
  8
DRAFT
 10
-936.0162424775449
 20
-34.456895295729
 30
0.0
  0
VERTEX
  5
DF4
  8
DRAFT
 10
-935.9103271232145
 20
-34.45689529572866
 30
0.0
 42
-0.9999999999999999
  0
SEQEND
  5
DF5
  8
DRAFT
  0
POLYLINE
  5
DF6
  8
DRAFT
 66
     1
 10
0.0
 20
0.0
 30
0.0
  0
VERTEX
  5
DF7
  8
DRAFT
 10
-965.095085053762
 20
-33.87373599397996
 30
0.0
 42
0.4142489508367865
  0
VERTEX
  5
DF8
  8
DRAFT
 10
-965.4360027759706
 20
-34.28001063993402
 30
0.0
  0
VERTEX
  5
DF9
  8
DRAFT
 10
-965.3705748595339
 20
-35.02749442933828
 30
0.0
 42
0.4141732650301381
  0
VERTEX
  5
DFA
  8
DRAFT
 10
-964.9643555600486
 20
-35.36837151092449
 30
0.0
  0
VERTEX
  5
DFB
  8
DRAFT
 10
-964.707670374733
 20
-35.34593921625038
 30
0.0
 42
0.6310947064811668
  0
VERTEX
  5
DFC
  8
DRAFT
 10
-964.6286623467272
 20
-35.1345536992941
 30
0.0
  0
VERTEX
  5
DFD
  8
DRAFT
 10
-964.7206853142966
 20
-35.03932016431184
 30
0.0
 42
0.2261705714064418
  0
VERTEX
  5
DFE
  8
DRAFT
 10
-964.7710719284607
 20
-35.02048754781045
 30
0.0
  0
VERTEX
  5
DFF
  8
DRAFT
 10
-964.789868737136
 20
-35.02213025763025
 30
0.0
 42
0.1609716664668292
  0
VERTEX
  5
E00
  8
DRAFT
 10
-964.8259005824028
 20
-35.03763584477928
 30
0.0
  0
VERTEX
  5
E01
  8
DRAFT
 10
-964.8339259324491
 20
-35.04475426556854
 30
0.0
 42
-2.02284802654758
  0
VERTEX
  5
E02
  8
DRAFT
 10
-964.8421980253312
 20
-34.9451437847758
 30
0.0
  0
VERTEX
  5
E03
  8
DRAFT
 10
-964.8333521988395
 20
-34.95064454525563
 30
0.0
 42
0.1622776624640029
  0
VERTEX
  5
E04
  8
DRAFT
 10
-964.7949063223352
 20
-34.95983228827932
 30
0.0
  0
VERTEX
  5
E05
  8
DRAFT
 10
-964.7500399506072
 20
-34.95591128069307
 30
0.0
 42
-0.2214558604946864
  0
VERTEX
  5
E06
  8
DRAFT
 10
-964.7004405117007
 20
-34.97394376283174
 30
0.0
  0
VERTEX
  5
E07
  8
DRAFT
 10
-964.3996109362729
 20
-35.27428303330675
 30
0.0
 42
0.2214556596429177
  0
VERTEX
  5
E08
  8
DRAFT
 10
-964.3004121538277
 20
-35.3103480059187
 30
0.0
  0
VERTEX
  5
E09
  8
DRAFT
 10
-963.715915962267
 20
-35.25926757138297
 30
0.0
 42
0.6310947064849575
  0
VERTEX
  5
E0A
  8
DRAFT
 10
-963.6369079342603
 20
-35.04788205442669
 30
0.0
  0
VERTEX
  5
E0B
  8
DRAFT
 10
-963.7289416016131
 20
-34.95263744635955
 30
0.0
 42
0.2261705714104442
  0
VERTEX
  5
E0C
  8
DRAFT
 10
-963.7793282157775
 20
-34.93380482985894
 30
0.0
  0
VERTEX
  5
E0D
  8
DRAFT
 10
-963.7981250244525
 20
-34.93544753967803
 30
0.0
 42
0.1609716664852952
  0
VERTEX
  5
E0E
  8
DRAFT
 10
-963.8341568697193
 20
-34.95095312682715
 30
0.0
  0
VERTEX
  5
E0F
  8
DRAFT
 10
-963.8421822197656
 20
-34.95807154761633
 30
0.0
 42
-2.022848026519801
  0
VERTEX
  5
E10
  8
DRAFT
 10
-963.8504543126472
 20
-34.85846106682344
 30
0.0
  0
VERTEX
  5
E11
  8
DRAFT
 10
-963.8416084861558
 20
-34.86396182730331
 30
0.0
 42
0.1622776624755495
  0
VERTEX
  5
E12
  8
DRAFT
 10
-963.803162609652
 20
-34.87314957032697
 30
0.0
  0
VERTEX
  5
E13
  8
DRAFT
 10
-963.7582962379236
 20
-34.86922856274082
 30
0.0
 42
-0.2214558604995452
  0
VERTEX
  5
E14
  8
DRAFT
 10
-963.7086967990176
 20
-34.88726104487966
 30
0.0
  0
VERTEX
  5
E15
  8
DRAFT
 10
-963.4078551459631
 20
-35.18761142038807
 30
0.0
 42
0.2214552436114937
  0
VERTEX
  5
E16
  8
DRAFT
 10
-963.3086565038448
 20
-35.22367625290207
 30
0.0
  0
VERTEX
  5
E17
  8
DRAFT
 10
-958.8009017996108
 20
-34.82971088477986
 30
0.0
 42
-0.0436214061427285
  0
VERTEX
  5
E18
  8
DRAFT
 10
-954.4355713445651
 20
-34.82971088477968
 30
0.0
  0
VERTEX
  5
E19
  8
DRAFT
 10
-949.9278174460414
 20
-35.22367625290201
 30
0.0
 42
0.2214552436105961
  0
VERTEX
  5
E1A
  8
DRAFT
 10
-949.828618803923
 20
-35.18761142038814
 30
0.0
  0
VERTEX
  5
E1B
  8
DRAFT
 10
-949.527777150869
 20
-34.88726104487957
 30
0.0
 42
-0.2214558604965953
  0
VERTEX
  5
E1C
  8
DRAFT
 10
-949.4781777119626
 20
-34.86922856274081
 30
0.0
  0
VERTEX
  5
E1D
  8
DRAFT
 10
-949.4333113402342
 20
-34.87314957032699
 30
0.0
 42
0.1622776624785737
  0
VERTEX
  5
E1E
  8
DRAFT
 10
-949.3948654637306
 20
-34.86396182730333
 30
0.0
  0
VERTEX
  5
E1F
  8
DRAFT
 10
-949.3860196372393
 20
-34.85846106682278
 30
0.0
 42
-1.989253265226855
  0
VERTEX
  5
E20
  8
DRAFT
 10
-949.3942917301207
 20
-34.95807154761643
 30
0.0
  0
VERTEX
  5
E21
  8
DRAFT
 10
-949.402317080167
 20
-34.95095312682708
 30
0.0
 42
0.1609716664875965
  0
VERTEX
  5
E22
  8
DRAFT
 10
-949.4383489254337
 20
-34.93544753967795
 30
0.0
  0
VERTEX
  5
E23
  8
DRAFT
 10
-949.457145734109
 20
-34.93380482985844
 30
0.0
 42
0.2261705714061574
  0
VERTEX
  5
E24
  8
DRAFT
 10
-949.5075323482733
 20
-34.95263744635959
 30
0.0
  0
VERTEX
  5
E25
  8
DRAFT
 10
-949.5995660156254
 20
-35.04788205442691
 30
0.0
 42
0.631094706484727
  0
VERTEX
  5
E26
  8
DRAFT
 10
-949.5205579876192
 20
-35.25926757138308
 30
0.0
  0
VERTEX
  5
E27
  8
DRAFT
 10
-948.9360617960585
 20
-35.31034800591884
 30
0.0
 42
0.2214556596418153
  0
VERTEX
  5
E28
  8
DRAFT
 10
-948.8368630136133
 20
-35.27428303330678
 30
0.0
  0
VERTEX
  5
E29
  8
DRAFT
 10
-948.5360334381853
 20
-34.97394376283186
 30
0.0
 42
-0.2214558604961194
  0
VERTEX
  5
E2A
  8
DRAFT
 10
-948.4864339992794
 20
-34.95591128069315
 30
0.0
  0
VERTEX
  5
E2B
  8
DRAFT
 10
-948.4415676275507
 20
-34.95983228827924
 30
0.0
 42
0.1622776624652777
  0
VERTEX
  5
E2C
  8
DRAFT
 10
-948.4031217510469
 20
-34.95064454525557
 30
0.0
  0
VERTEX
  5
E2D
  8
DRAFT
 10
-948.3942759245556
 20
-34.94514378477508
 30
0.0
 42
-1.98925326512772
  0
VERTEX
  5
E2E
  8
DRAFT
 10
-948.402548017437
 20
-35.04475426556858
 30
0.0
  0
VERTEX
  5
E2F
  8
DRAFT
 10
-948.4105733674837
 20
-35.03763584477933
 30
0.0
 42
0.1609716664679628
  0
VERTEX
  5
E30
  8
DRAFT
 10
-948.4466052127505
 20
-35.02213025763038
 30
0.0
  0
VERTEX
  5
E31
  8
DRAFT
 10
-948.4654020214252
 20
-35.02048754781072
 30
0.0
 42
0.2261705714051483
  0
VERTEX
  5
E32
  8
DRAFT
 10
-948.5157886355898
 20
-35.03932016431187
 30
0.0
  0
VERTEX
  5
E33
  8
DRAFT
 10
-948.6078116031592
 20
-35.13455369929416
 30
0.0
 42
0.6310947064852882
  0
VERTEX
  5
E34
  8
DRAFT
 10
-948.5288035751532
 20
-35.34593921625042
 30
0.0
  0
VERTEX
  5
E35
  8
DRAFT
 10
-948.2721183898376
 20
-35.36837151092432
 30
0.0
 42
0.4141732650311496
  0
VERTEX
  5
E36
  8
DRAFT
 10
-947.8658990903523
 20
-35.02749442933828
 30
0.0
  0
VERTEX
  5
E37
  8
DRAFT
 10
-947.8004711739153
 20
-34.28001063993401
 30
0.0
 42
0.4142489508355557
  0
VERTEX
  5
E38
  8
DRAFT
 10
-948.1413888961242
 20
-33.87373599397997
 30
0.0
  0
SEQEND
  5
E39
  8
DRAFT
  0
POLYLINE
  5
E3A
  8
DRAFT
 66
     1
 10
0.0
 20
0.0
 30
0.0
  0
VERTEX
  5
E3B
  8
DRAFT
 10
-964.2308198162755
 20
-34.90371993086348
 30
0.0
  0
VERTEX
  5
E3C
  8
DRAFT
 10
-964.2556071780859
 20
-34.90588617230666
 30
0.0
 42
-0.1624911418138177
  0
VERTEX
  5
E3D
  8
DRAFT
 10
-964.331321511519
 20
-34.88823386653616
 30
0.0
 42
-0.0901239739869846
  0
VERTEX
  5
E3E
  8
DRAFT
 10
-964.465953558149
 20
-34.76751128871081
 30
0.0
 42
-0.2945408183619238
  0
VERTEX
  5
E3F
  8
DRAFT
 10
-964.4998767372228
 20
-34.37934309565716
 30
0.0
 42
-0.093120483370853
  0
VERTEX
  5
E40
  8
DRAFT
 10
-964.388226295759
 20
-34.23709715477447
 30
0.0
 42
-0.1594425821317151
  0
VERTEX
  5
E41
  8
DRAFT
 10
-964.3167217273701
 20
-34.20657894896645
 30
0.0
  0
VERTEX
  5
E42
  8
DRAFT
 10
-964.2919343655983
 20
-34.20441270707995
 30
0.0
  0
SEQEND
  5
E43
  8
DRAFT
  0
POLYLINE
  5
E44
  8
DRAFT
 66
     1
 10
0.0
 20
0.0
 30
0.0
 70
     1
  0
VERTEX
  5
E45
  8
DRAFT
 10
-961.7877348836641
 20
-33.87374971442564
 30
0.0
  0
VERTEX
  5
E46
  8
DRAFT
 10
-961.723547558629
 20
-34.60741419674697
 30
0.0
 42
-0.4142135330753278
  0
VERTEX
  5
E47
  8
DRAFT
 10
-961.7519550228706
 20
-34.64126889775069
 30
0.0
  0
VERTEX
  5
E48
  8
DRAFT
 10
-962.2779968057375
 20
-34.68729164330151
 30
0.0
 42
-0.4142135777579512
  0
VERTEX
  5
E49
  8
DRAFT
 10
-962.3118515099976
 20
-34.65888417769472
 30
0.0
  0
VERTEX
  5
E4A
  8
DRAFT
 10
-962.3760388700803
 20
-33.92521969519652
 30
0.0
 42
-1.000000000080468
  0
VERTEX
  5
E4B
  8
DRAFT
 10
-962.3361910821568
 20
-33.92173346548669
 30
0.0
  0
VERTEX
  5
E4C
  8
DRAFT
 10
-962.3234736519871
 20
-34.06709402262339
 30
0.0
 42
0.4142135183950432
  0
VERTEX
  5
E4D
  8
DRAFT
 10
-962.2896189497042
 20
-34.09550148361588
 30
0.0
  0
VERTEX
  5
E4E
  8
DRAFT
 10
-961.8432727343361
 20
-34.05645122734922
 30
0.0
 42
0.4142135477961787
  0
VERTEX
  5
E4F
  8
DRAFT
 10
-961.8148652685325
 20
-34.02259652620879
 30
0.0
  0
VERTEX
  5
E50
  8
DRAFT
 10
-961.8275826715881
 20
-33.87723594413564
 30
0.0
 42
-1.000000000048697
  0
SEQEND
  5
E51
  8
DRAFT
  0
POLYLINE
  5
E52
  8
DRAFT
 66
     1
 10
0.0
 20
0.0
 30
0.0
 70
     1
  0
VERTEX
  5
E53
  8
DRAFT
 10
-962.8920147692611
 20
-34.71765418066042
 30
0.0
 42
-0.4142135623716606
  0
VERTEX
  5
E54
  8
DRAFT
 10
-962.9204208181109
 20
-34.75151007215308
 30
0.0
  0
VERTEX
  5
E55
  8
DRAFT
 10
-963.3378694126384
 20
-34.78804971641885
 30
0.0
 42
-0.4142135623669418
  0
VERTEX
  5
E56
  8
DRAFT
 10
-963.371725304131
 20
-34.75964366756884
 30
0.0
  0
VERTEX
  5
E57
  8
DRAFT
 10
-963.4191767635039
 20
-34.21753261472947
 30
0.0
 42
-0.4142135623692678
  0
VERTEX
  5
E58
  8
DRAFT
 10
-963.3907707146541
 20
-34.18367672323681
 30
0.0
  0
VERTEX
  5
E59
  8
DRAFT
 10
-962.9733221201263
 20
-34.14713707897116
 30
0.0
 42
-0.4142135623530613
  0
VERTEX
  5
E5A
  8
DRAFT
 10
-962.939466228635
 20
-34.17554312782134
 30
0.0
  0
SEQEND
  5
E5B
  8
DRAFT
  0
POLYLINE
  5
E5C
  8
DRAFT
 66
     1
 10
0.0
 20
0.0
 30
0.0
  0
VERTEX
  5
E5D
  8
DRAFT
 10
-964.4311507592231
 20
-33.81570207043057
 30
0.0
 42
0.2215234308522026
  0
VERTEX
  5
E5E
  8
DRAFT
 10
-964.5226076303669
 20
-33.86845530110399
 30
0.0
  0
VERTEX
  5
E5F
  8
DRAFT
 10
-964.7667347610264
 20
-34.21656251947037
 30
0.0
 42
-0.221455860502348
  0
VERTEX
  5
E60
  8
DRAFT
 10
-964.8124471553126
 20
-34.24293773056974
 30
0.0
  0
VERTEX
  5
E61
  8
DRAFT
 10
-964.8573124524178
 20
-34.24687101522854
 30
0.0
 42
0.162277662459265
  0
VERTEX
  5
E62
  8
DRAFT
 10
-964.8935774970505
 20
-34.26259827118114
 30
0.0
  0
VERTEX
  5
E63
  8
DRAFT
 10
-964.9013331558313
 20
-34.2695521743338
 30
0.0
 42
-2.013858595990878
  0
VERTEX
  5
E64
  8
DRAFT
 10
-964.9104922537878
 20
-34.17001933387847
 30
0.0
  0
VERTEX
  5
E65
  8
DRAFT
 10
-964.901352255408
 20
-34.17563525655519
 30
0.0
 42
0.1609716664682982
  0
VERTEX
  5
E66
  8
DRAFT
 10
-964.8631745427308
 20
-34.18464521553842
 30
0.0
  0
VERTEX
  5
E67
  8
DRAFT
 10
-964.84437818427
 20
-34.18299736222759
 30
0.0
 42
0.2261705714035419
  0
VERTEX
  5
E68
  8
DRAFT
 10
-964.7980295930482
 20
-34.15569742774006
 30
0.0
  0
VERTEX
  5
E69
  8
DRAFT
 10
-964.7238265982091
 20
-34.04574054778744
 30
0.0
 42
0.6310043784690179
  0
VERTEX
  5
E6A
  8
DRAFT
 10
-964.8383251431201
 20
-33.85129283183662
 30
0.0
  0
SEQEND
  5
E6B
  8
DRAFT
  0
POLYLINE
  5
E6C
  8
DRAFT
 66
     1
 10
0.0
 20
0.0
 30
0.0
  0
VERTEX
  5
E6D
  8
DRAFT
 10
-963.4385306994409
 20
-33.69941459143696
 30
0.0
 42
0.1738231549314478
  0
VERTEX
  5
E6E
  8
DRAFT
 10
-963.5074362929874
 20
-33.74808766623565
 30
0.0
  0
VERTEX
  5
E6F
  8
DRAFT
 10
-963.7750128490019
 20
-34.1296307390365
 30
0.0
 42
-0.2214558605053326
  0
VERTEX
  5
E70
  8
DRAFT
 10
-963.8207252432883
 20
-34.15600595013567
 30
0.0
  0
VERTEX
  5
E71
  8
DRAFT
 10
-963.8655905403934
 20
-34.15993923479467
 30
0.0
 42
0.1622776624710197
  0
VERTEX
  5
E72
  8
DRAFT
 10
-963.9018555850265
 20
-34.17566649074748
 30
0.0
  0
VERTEX
  5
E73
  8
DRAFT
 10
-963.9096112438068
 20
-34.1826203939
 30
0.0
 42
-2.013858596084768
  0
VERTEX
  5
E74
  8
DRAFT
 10
-963.9187703417642
 20
-34.08308755344446
 30
0.0
  0
VERTEX
  5
E75
  8
DRAFT
 10
-963.9096303433839
 20
-34.08870347612135
 30
0.0
 42
0.1609716664697899
  0
VERTEX
  5
E76
  8
DRAFT
 10
-963.8714526307065
 20
-34.09771343510444
 30
0.0
  0
VERTEX
  5
E77
  8
DRAFT
 10
-963.8526562722457
 20
-34.09606558179391
 30
0.0
 42
0.2261705714131689
  0
VERTEX
  5
E78
  8
DRAFT
 10
-963.8063076810237
 20
-34.06876564730637
 30
0.0
  0
VERTEX
  5
E79
  8
DRAFT
 10
-963.7322812631746
 20
-33.95907042599595
 30
0.0
 42
0.6310043784595661
  0
VERTEX
  5
E7A
  8
DRAFT
 10
-963.8467798080858
 20
-33.7646227100453
 30
0.0
  0
SEQEND
  5
E7B
  8
DRAFT
  0
LINE
  5
E7C
  8
DRAFT
 10
-961.772293863784
 20
-34.05024137926438
 30
0.0
 11
-961.7877348836641
 21
-33.87374971442564
 31
0.0
  0
POLYLINE
  5
E7D
  8
DRAFT
 66
     1
 10
0.0
 20
0.0
 30
0.0
  0
VERTEX
  5
E7E
  8
DRAFT
 10
-949.0056541336107
 20
-34.90371993086348
 30
0.0
  0
VERTEX
  5
E7F
  8
DRAFT
 10
-948.9808667718003
 20
-34.90588617230654
 30
0.0
 42
0.1624911418175054
  0
VERTEX
  5
E80
  8
DRAFT
 10
-948.9051524383672
 20
-34.88823386653617
 30
0.0
 42
0.0901239739857166
  0
VERTEX
  5
E81
  8
DRAFT
 10
-948.7705203917373
 20
-34.76751128871079
 30
0.0
 42
0.2945408183604522
  0
VERTEX
  5
E82
  8
DRAFT
 10
-948.7365972126632
 20
-34.37934309565714
 30
0.0
 42
0.0931204833721346
  0
VERTEX
  5
E83
  8
DRAFT
 10
-948.8482476541271
 20
-34.23709715477442
 30
0.0
 42
0.1594425821305687
  0
VERTEX
  5
E84
  8
DRAFT
 10
-948.9197522225161
 20
-34.20657894896623
 30
0.0
  0
VERTEX
  5
E85
  8
DRAFT
 10
-948.9445395842879
 20
-34.20441270707995
 30
0.0
  0
SEQEND
  5
E86
  8
DRAFT
  0
POLYLINE
  5
E87
  8
DRAFT
 66
     1
 10
0.0
 20
0.0
 30
0.0
 70
     1
  0
VERTEX
  5
E88
  8
DRAFT
 10
-951.4487390662221
 20
-33.87374971442564
 30
0.0
  0
VERTEX
  5
E89
  8
DRAFT
 10
-951.5129263912572
 20
-34.60741419674697
 30
0.0
 42
0.4142135330774186
  0
VERTEX
  5
E8A
  8
DRAFT
 10
-951.4845189270156
 20
-34.64126889775049
 30
0.0
  0
VERTEX
  5
E8B
  8
DRAFT
 10
-950.9584771441487
 20
-34.6872916433016
 30
0.0
 42
0.4142135777599799
  0
VERTEX
  5
E8C
  8
DRAFT
 10
-950.9246224398883
 20
-34.65888417769474
 30
0.0
  0
VERTEX
  5
E8D
  8
DRAFT
 10
-950.8604350798059
 20
-33.92521969519652
 30
0.0
 42
1.000000000065809
  0
VERTEX
  5
E8E
  8
DRAFT
 10
-950.9002828677296
 20
-33.92173346548669
 30
0.0
  0
VERTEX
  5
E8F
  8
DRAFT
 10
-950.9130002978991
 20
-34.0670940226234
 30
0.0
 42
-0.4142135183888987
  0
VERTEX
  5
E90
  8
DRAFT
 10
-950.946855000182
 20
-34.09550148361583
 30
0.0
  0
VERTEX
  5
E91
  8
DRAFT
 10
-951.3932012155501
 20
-34.05645122734922
 30
0.0
 42
-0.4142135477988075
  0
VERTEX
  5
E92
  8
DRAFT
 10
-951.4216086813536
 20
-34.02259652620879
 30
0.0
  0
VERTEX
  5
E93
  8
DRAFT
 10
-951.4088912782981
 20
-33.87723594413564
 30
0.0
 42
1.000000000031585
  0
SEQEND
  5
E94
  8
DRAFT
  0
POLYLINE
  5
E95
  8
DRAFT
 66
     1
 10
0.0
 20
0.0
 30
0.0
 70
     1
  0
VERTEX
  5
E96
  8
DRAFT
 10
-950.3444591806251
 20
-34.71765418066042
 30
0.0
 42
0.4142135623636553
  0
VERTEX
  5
E97
  8
DRAFT
 10
-950.3160531317753
 20
-34.75151007215296
 30
0.0
  0
VERTEX
  5
E98
  8
DRAFT
 10
-949.8986045372478
 20
-34.78804971641875
 30
0.0
 42
0.4142135623663681
  0
VERTEX
  5
E99
  8
DRAFT
 10
-949.8647486457552
 20
-34.75964366756885
 30
0.0
  0
VERTEX
  5
E9A
  8
DRAFT
 10
-949.8172971863823
 20
-34.21753261472947
 30
0.0
 42
0.4142135623796399
  0
VERTEX
  5
E9B
  8
DRAFT
 10
-949.8457032352321
 20
-34.18367672323694
 30
0.0
  0
VERTEX
  5
E9C
  8
DRAFT
 10
-950.2631518297599
 20
-34.14713707897117
 30
0.0
 42
0.4142135623496789
  0
VERTEX
  5
E9D
  8
DRAFT
 10
-950.2970077212511
 20
-34.17554312782136
 30
0.0
  0
SEQEND
  5
E9E
  8
DRAFT
  0
POLYLINE
  5
E9F
  8
DRAFT
 66
     1
 10
0.0
 20
0.0
 30
0.0
  0
VERTEX
  5
EA0
  8
DRAFT
 10
-948.8053231906631
 20
-33.81570207043057
 30
0.0
 42
-0.2215234308522387
  0
VERTEX
  5
EA1
  8
DRAFT
 10
-948.7138663195193
 20
-33.86845530110404
 30
0.0
  0
VERTEX
  5
EA2
  8
DRAFT
 10
-948.4697391888599
 20
-34.21656251947042
 30
0.0
 42
0.2214558605040539
  0
VERTEX
  5
EA3
  8
DRAFT
 10
-948.4240267945736
 20
-34.24293773056974
 30
0.0
  0
VERTEX
  5
EA4
  8
DRAFT
 10
-948.3791614974684
 20
-34.24687101522856
 30
0.0
 42
-0.1622776624568003
  0
VERTEX
  5
EA5
  8
DRAFT
 10
-948.3428964528357
 20
-34.26259827118111
 30
0.0
  0
VERTEX
  5
EA6
  8
DRAFT
 10
-948.335140794055
 20
-34.26955217433382
 30
0.0
 42
2.013858595983336
  0
VERTEX
  5
EA7
  8
DRAFT
 10
-948.3259816960984
 20
-34.17001933387838
 30
0.0
  0
VERTEX
  5
EA8
  8
DRAFT
 10
-948.3351216944782
 20
-34.17563525655514
 30
0.0
 42
-0.1609716664702475
  0
VERTEX
  5
EA9
  8
DRAFT
 10
-948.3732994071554
 20
-34.18464521553832
 30
0.0
  0
VERTEX
  5
EAA
  8
DRAFT
 10
-948.3920957656162
 20
-34.18299736222759
 30
0.0
 42
-0.2261705714025377
  0
VERTEX
  5
EAB
  8
DRAFT
 10
-948.4384443568379
 20
-34.15569742774001
 30
0.0
  0
VERTEX
  5
EAC
  8
DRAFT
 10
-948.5126473516771
 20
-34.04574054778744
 30
0.0
 42
-0.6310043784604463
  0
VERTEX
  5
EAD
  8
DRAFT
 10
-948.3981488067661
 20
-33.85129283183667
 30
0.0
  0
SEQEND
  5
EAE
  8
DRAFT
  0
POLYLINE
  5
EAF
  8
DRAFT
 66
     1
 10
0.0
 20
0.0
 30
0.0
  0
VERTEX
  5
EB0
  8
DRAFT
 10
-949.7979432504453
 20
-33.69941459143696
 30
0.0
 42
-0.1738231549287967
  0
VERTEX
  5
EB1
  8
DRAFT
 10
-949.7290376568989
 20
-33.7480876662357
 30
0.0
  0
VERTEX
  5
EB2
  8
DRAFT
 10
-949.4614611008842
 20
-34.12963073903644
 30
0.0
 42
0.2214558605031073
  0
VERTEX
  5
EB3
  8
DRAFT
 10
-949.4157487065979
 20
-34.15600595013574
 30
0.0
  0
VERTEX
  5
EB4
  8
DRAFT
 10
-949.3708834094928
 20
-34.15993923479468
 30
0.0
 42
-0.1622776624623846
  0
VERTEX
  5
EB5
  8
DRAFT
 10
-949.3346183648596
 20
-34.1756664907474
 30
0.0
  0
VERTEX
  5
EB6
  8
DRAFT
 10
-949.3268627060793
 20
-34.1826203939
 30
0.0
 42
2.013858596078001
  0
VERTEX
  5
EB7
  8
DRAFT
 10
-949.317703608122
 20
-34.08308755344446
 30
0.0
  0
VERTEX
  5
EB8
  8
DRAFT
 10
-949.3268436065023
 20
-34.08870347612135
 30
0.0
 42
-0.1609716664633384
  0
VERTEX
  5
EB9
  8
DRAFT
 10
-949.3650213191797
 20
-34.09771343510445
 30
0.0
  0
VERTEX
  5
EBA
  8
DRAFT
 10
-949.3838176776405
 20
-34.09606558179383
 30
0.0
 42
-0.2261705714144242
  0
VERTEX
  5
EBB
  8
DRAFT
 10
-949.4301662688626
 20
-34.06876564730645
 30
0.0
  0
VERTEX
  5
EBC
  8
DRAFT
 10
-949.5041926867116
 20
-33.95907042599595
 30
0.0
 42
-0.6310043784573662
  0
VERTEX
  5
EBD
  8
DRAFT
 10
-949.3896941418004
 20
-33.76462271004518
 30
0.0
  0
SEQEND
  5
EBE
  8
DRAFT
  0
LINE
  5
EBF
  8
DRAFT
 10
-951.4641800861023
 20
-34.05024137926438
 30
0.0
 11
-951.4487390662221
 21
-33.87374971442564
 31
0.0
  0
POLYLINE
  5
EC0
  8
DRAFT
 66
     1
 10
0.0
 20
0.0
 30
0.0
 70
     1
  0
VERTEX
  5
EC1
  8
DRAFT
 10
-973.9688047156626
 20
-24.87226546268247
 30
0.0
 42
0.4142135623625928
  0
VERTEX
  5
EC2
  8
DRAFT
 10
-973.9972107645121
 20
-24.83840957118972
 30
0.0
  0
VERTEX
  5
EC3
  8
DRAFT
 10
-974.4146593590399
 20
-24.80186992692408
 30
0.0
 42
0.4142135623902595
  0
VERTEX
  5
EC4
  8
DRAFT
 10
-974.4485152505323
 20
-24.8302759757741
 30
0.0
  0
VERTEX
  5
EC5
  8
DRAFT
 10
-974.4959667099051
 20
-25.37238702861344
 30
0.0
 42
0.4142135623721186
  0
VERTEX
  5
EC6
  8
DRAFT
 10
-974.4675606610554
 20
-25.4062429201063
 30
0.0
  0
VERTEX
  5
EC7
  8
DRAFT
 10
-974.0501120665276
 20
-25.44278256437175
 30
0.0
 42
0.4142135623656246
  0
VERTEX
  5
EC8
  8
DRAFT
 10
-974.0162561750351
 20
-25.41437651552159
 30
0.0
  0
SEQEND
  5
EC9
  8
DRAFT
  0
POLYLINE
  5
ECA
  8
DRAFT
 66
     1
 10
0.0
 20
0.0
 30
0.0
 70
     1
  0
VERTEX
  5
ECB
  8
DRAFT
 10
-972.8645248300654
 20
-25.71616992891727
 30
0.0
  0
VERTEX
  5
ECC
  8
DRAFT
 10
-972.8003375050305
 20
-24.98250544659593
 30
0.0
 42
0.4142135330874871
  0
VERTEX
  5
ECD
  8
DRAFT
 10
-972.8287449692723
 20
-24.94865074559185
 30
0.0
  0
VERTEX
  5
ECE
  8
DRAFT
 10
-973.354786752139
 20
-24.9026280000413
 30
0.0
 42
0.4142135777962979
  0
VERTEX
  5
ECF
  8
DRAFT
 10
-973.3886414563991
 20
-24.93103546564817
 30
0.0
  0
VERTEX
  5
ED0
  8
DRAFT
 10
-973.4528288164818
 20
-25.66469994814638
 30
0.0
 42
1.00000000001962
  0
VERTEX
  5
ED1
  8
DRAFT
 10
-973.4129810285582
 20
-25.66818617785615
 30
0.0
  0
VERTEX
  5
ED2
  8
DRAFT
 10
-973.4002635983884
 20
-25.52282562071951
 30
0.0
 42
-0.4142135183813811
  0
VERTEX
  5
ED3
  8
DRAFT
 10
-973.3664088961057
 20
-25.49441815972687
 30
0.0
  0
VERTEX
  5
ED4
  8
DRAFT
 10
-972.9200626807374
 20
-25.53346841599369
 30
0.0
 42
-0.4142135477724747
  0
VERTEX
  5
ED5
  8
DRAFT
 10
-972.8916552149349
 20
-25.56732311713409
 30
0.0
  0
VERTEX
  5
ED6
  8
DRAFT
 10
-972.9043726179893
 20
-25.71268369920727
 30
0.0
 42
1.000000000011989
  0
SEQEND
  5
ED7
  8
DRAFT
  0
POLYLINE
  5
ED8
  8
DRAFT
 66
     1
 10
0.0
 20
0.0
 30
0.0
  0
VERTEX
  5
ED9
  8
DRAFT
 10
-975.3076097626767
 20
-24.68619971247941
 30
0.0
  0
VERTEX
  5
EDA
  8
DRAFT
 10
-975.3323971244872
 20
-24.68403347103635
 30
0.0
 42
0.1624911418134958
  0
VERTEX
  5
EDB
  8
DRAFT
 10
-975.4081114579204
 20
-24.70168577680677
 30
0.0
 42
0.0901239739893923
  0
VERTEX
  5
EDC
  8
DRAFT
 10
-975.5427435045506
 20
-24.82240835463203
 30
0.0
 42
0.2945408183577793
  0
VERTEX
  5
EDD
  8
DRAFT
 10
-975.5766666836244
 20
-25.21057654768573
 30
0.0
 42
0.0931204833768004
  0
VERTEX
  5
EDE
  8
DRAFT
 10
-975.4650162421603
 20
-25.35282248856833
 30
0.0
 42
0.1594425821306685
  0
VERTEX
  5
EDF
  8
DRAFT
 10
-975.3935116737716
 20
-25.38334069437635
 30
0.0
  0
VERTEX
  5
EE0
  8
DRAFT
 10
-975.3687243119998
 20
-25.38550693626296
 30
0.0
  0
SEQEND
  5
EE1
  8
DRAFT
  0
POLYLINE
  5
EE2
  8
DRAFT
 66
     1
 10
0.0
 20
0.0
 30
0.0
  0
VERTEX
  5
EE3
  8
DRAFT
 10
-953.354360812822
 20
-25.77421757291231
 30
0.0
 42
-0.2215234308539564
  0
VERTEX
  5
EE4
  8
DRAFT
 10
-953.4458176839656
 20
-25.72146434223884
 30
0.0
  0
VERTEX
  5
EE5
  8
DRAFT
 10
-953.689944814625
 20
-25.37335712387249
 30
0.0
 42
0.2214558605068107
  0
VERTEX
  5
EE6
  8
DRAFT
 10
-953.7356572089113
 20
-25.34698191277307
 30
0.0
  0
VERTEX
  5
EE7
  8
DRAFT
 10
-953.7805225060165
 20
-25.34304862811431
 30
0.0
 42
-0.1622776624760023
  0
VERTEX
  5
EE8
  8
DRAFT
 10
-953.8167875506495
 20
-25.32732137216174
 30
0.0
  0
VERTEX
  5
EE9
  8
DRAFT
 10
-953.82454320943
 20
-25.32036746900908
 30
0.0
 42
2.01385859608461
  0
VERTEX
  5
EEA
  8
DRAFT
 10
-953.8337023073868
 20
-25.41990030946498
 30
0.0
  0
VERTEX
  5
EEB
  8
DRAFT
 10
-953.824562309007
 20
-25.41428438678776
 30
0.0
 42
-0.1609716664712083
  0
VERTEX
  5
EEC
  8
DRAFT
 10
-953.7863845963293
 20
-25.40527442780451
 30
0.0
  0
VERTEX
  5
EED
  8
DRAFT
 10
-953.767588237869
 20
-25.4069222811153
 30
0.0
 42
-0.2261705714074763
  0
VERTEX
  5
EEE
  8
DRAFT
 10
-953.7212396466471
 20
-25.43422221560261
 30
0.0
  0
VERTEX
  5
EEF
  8
DRAFT
 10
-953.6470366518081
 20
-25.54417909555547
 30
0.0
 42
-0.6310043784593282
  0
VERTEX
  5
EF0
  8
DRAFT
 10
-953.761535196719
 20
-25.73862681150646
 30
0.0
  0
SEQEND
  5
EF1
  8
DRAFT
  0
POLYLINE
  5
EF2
  8
DRAFT
 66
     1
 10
0.0
 20
0.0
 30
0.0
  0
VERTEX
  5
EF3
  8
DRAFT
 10
-952.3617407530396
 20
-25.89050505190595
 30
0.0
 42
-0.1738231549343717
  0
VERTEX
  5
EF4
  8
DRAFT
 10
-952.4306463465862
 20
-25.84183197710735
 30
0.0
  0
VERTEX
  5
EF5
  8
DRAFT
 10
-952.6982229026007
 20
-25.46028890430647
 30
0.0
 42
0.2214558604970291
  0
VERTEX
  5
EF6
  8
DRAFT
 10
-952.7439352968868
 20
-25.43391369320666
 30
0.0
  0
VERTEX
  5
EF7
  8
DRAFT
 10
-952.7888005939922
 20
-25.42998040854825
 30
0.0
 42
-0.1622776624650764
  0
VERTEX
  5
EF8
  8
DRAFT
 10
-952.825065638625
 20
-25.41425315259556
 30
0.0
  0
VERTEX
  5
EF9
  8
DRAFT
 10
-952.8328212974056
 20
-25.40729924944291
 30
0.0
 42
2.013858596053033
  0
VERTEX
  5
EFA
  8
DRAFT
 10
-952.8419803953625
 20
-25.50683208989927
 30
0.0
  0
VERTEX
  5
EFB
  8
DRAFT
 10
-952.8328403969828
 20
-25.50121616722153
 30
0.0
 42
-0.1609716664709105
  0
VERTEX
  5
EFC
  8
DRAFT
 10
-952.7946626843045
 20
-25.49220620823814
 30
0.0
  0
VERTEX
  5
EFD
  8
DRAFT
 10
-952.7758663258444
 20
-25.4938540615491
 30
0.0
 42
-0.2261705714120423
  0
VERTEX
  5
EFE
  8
DRAFT
 10
-952.7295177346226
 20
-25.52115399603656
 30
0.0
  0
VERTEX
  5
EFF
  8
DRAFT
 10
-952.6554913167734
 20
-25.63084921734696
 30
0.0
 42
-0.6310043784703996
  0
VERTEX
  5
F00
  8
DRAFT
 10
-952.7699898616843
 20
-25.82529693329734
 30
0.0
  0
SEQEND
  5
F01
  8
DRAFT
  0
POLYLINE
  5
F02
  8
DRAFT
 66
     1
 10
0.0
 20
0.0
 30
0.0
 70
     1
  0
VERTEX
  5
F03
  8
DRAFT
 10
-939.2676692342238
 20
-24.87226546268247
 30
0.0
 42
-0.414213562355092
  0
VERTEX
  5
F04
  8
DRAFT
 10
-939.2392631853736
 20
-24.83840957119025
 30
0.0
  0
VERTEX
  5
F05
  8
DRAFT
 10
-938.8218145908468
 20
-24.80186992692408
 30
0.0
 42
-0.4142135623834636
  0
VERTEX
  5
F06
  8
DRAFT
 10
-938.7879586993539
 20
-24.83027597577409
 30
0.0
  0
VERTEX
  5
F07
  8
DRAFT
 10
-938.7405072399813
 20
-25.37238702861344
 30
0.0
 42
-0.4142135623650088
  0
VERTEX
  5
F08
  8
DRAFT
 10
-938.7689132888307
 20
-25.40624292010623
 30
0.0
  0
VERTEX
  5
F09
  8
DRAFT
 10
-939.1863618833588
 20
-25.44278256437183
 30
0.0
 42
-0.4142135623645957
  0
VERTEX
  5
F0A
  8
DRAFT
 10
-939.2202177748509
 20
-25.41437651552159
 30
0.0
  0
SEQEND
  5
F0B
  8
DRAFT
  0
POLYLINE
  5
F0C
  8
DRAFT
 66
     1
 10
0.0
 20
0.0
 30
0.0
 70
     1
  0
VERTEX
  5
F0D
  8
DRAFT
 10
-940.371949119821
 20
-25.71616992891727
 30
0.0
  0
VERTEX
  5
F0E
  8
DRAFT
 10
-940.436136444856
 20
-24.98250544659593
 30
0.0
 42
-0.414213533093642
  0
VERTEX
  5
F0F
  8
DRAFT
 10
-940.4077289806144
 20
-24.94865074559254
 30
0.0
  0
VERTEX
  5
F10
  8
DRAFT
 10
-939.8816871977474
 20
-24.90262800004129
 30
0.0
 42
-0.4142135777856145
  0
VERTEX
  5
F11
  8
DRAFT
 10
-939.8478324934872
 20
-24.93103546564818
 30
0.0
  0
VERTEX
  5
F12
  8
DRAFT
 10
-939.7836451334047
 20
-25.66469994814639
 30
0.0
 42
-0.9999999999822046
  0
VERTEX
  5
F13
  8
DRAFT
 10
-939.8234929213296
 20
-25.66818617785619
 30
0.0
  0
VERTEX
  5
F14
  8
DRAFT
 10
-939.836210351498
 20
-25.52282562071951
 30
0.0
 42
0.4142135183869718
  0
VERTEX
  5
F15
  8
DRAFT
 10
-939.8700650537805
 20
-25.49441815972736
 30
0.0
  0
VERTEX
  5
F16
  8
DRAFT
 10
-940.3164112691491
 20
-25.53346841599369
 30
0.0
 42
0.4142135477527902
  0
VERTEX
  5
F17
  8
DRAFT
 10
-940.3448187349517
 20
-25.56732311713407
 30
0.0
  0
VERTEX
  5
F18
  8
DRAFT
 10
-940.3321013318971
 20
-25.71268369920727
 30
0.0
 42
-1.00000000003744
  0
SEQEND
  5
F19
  8
DRAFT
  0
POLYLINE
  5
F1A
  8
DRAFT
 66
     1
 10
0.0
 20
0.0
 30
0.0
  0
VERTEX
  5
F1B
  8
DRAFT
 10
-937.9288641872097
 20
-24.68619971247941
 30
0.0
  0
VERTEX
  5
F1C
  8
DRAFT
 10
-937.904076825399
 20
-24.6840334710364
 30
0.0
 42
-0.162491141810026
  0
VERTEX
  5
F1D
  8
DRAFT
 10
-937.828362491966
 20
-24.70168577680672
 30
0.0
 42
-0.0901239739907147
  0
VERTEX
  5
F1E
  8
DRAFT
 10
-937.6937304453355
 20
-24.82240835463204
 30
0.0
 42
-0.2945408183558242
  0
VERTEX
  5
F1F
  8
DRAFT
 10
-937.6598072662622
 20
-25.21057654768581
 30
0.0
 42
-0.0931204833702657
  0
VERTEX
  5
F20
  8
DRAFT
 10
-937.7714577077262
 20
-25.35282248856837
 30
0.0
 42
-0.1594425821276597
  0
VERTEX
  5
F21
  8
DRAFT
 10
-937.8429622761148
 20
-25.38334069437657
 30
0.0
  0
VERTEX
  5
F22
  8
DRAFT
 10
-937.8677496378868
 20
-25.38550693626296
 30
0.0
  0
SEQEND
  5
F23
  8
DRAFT
  0
POLYLINE
  5
F24
  8
DRAFT
 66
     1
 10
0.0
 20
0.0
 30
0.0
 70
     1
  0
VERTEX
  5
F25
  8
DRAFT
 10
-951.8152248228603
 20
-24.87226546268247
 30
0.0
 42
0.4142135623719737
  0
VERTEX
  5
F26
  8
DRAFT
 10
-951.8436308717098
 20
-24.83840957119009
 30
0.0
  0
VERTEX
  5
F27
  8
DRAFT
 10
-952.2610794662373
 20
-24.80186992692407
 30
0.0
 42
0.4142135623669603
  0
VERTEX
  5
F28
  8
DRAFT
 10
-952.29493535773
 20
-24.83027597577409
 30
0.0
  0
VERTEX
  5
F29
  8
DRAFT
 10
-952.3423868171026
 20
-25.37238702861344
 30
0.0
 42
0.4142135623990952
  0
VERTEX
  5
F2A
  8
DRAFT
 10
-952.3139807682523
 20
-25.4062429201053
 30
0.0
  0
VERTEX
  5
F2B
  8
DRAFT
 10
-951.8965321737251
 20
-25.44278256437182
 30
0.0
 42
0.4142135623499441
  0
VERTEX
  5
F2C
  8
DRAFT
 10
-951.8626762822332
 20
-25.4143765155216
 30
0.0
  0
SEQEND
  5
F2D
  8
DRAFT
  0
POLYLINE
  5
F2E
  8
DRAFT
 66
     1
 10
0.0
 20
0.0
 30
0.0
 70
     1
  0
VERTEX
  5
F2F
  8
DRAFT
 10
-950.7109449372629
 20
-25.71616992891727
 30
0.0
  0
VERTEX
  5
F30
  8
DRAFT
 10
-950.6467576122279
 20
-24.98250544659593
 30
0.0
 42
0.4142135330903333
  0
VERTEX
  5
F31
  8
DRAFT
 10
-950.6751650764697
 20
-24.948650745592
 30
0.0
  0
VERTEX
  5
F32
  8
DRAFT
 10
-951.2012068593365
 20
-24.90262800004122
 30
0.0
 42
0.4142135777852955
  0
VERTEX
  5
F33
  8
DRAFT
 10
-951.2350615635978
 20
-24.93103546564809
 30
0.0
  0
VERTEX
  5
F34
  8
DRAFT
 10
-951.299248923679
 20
-25.66469994814641
 30
0.0
 42
0.9999999999771533
  0
VERTEX
  5
F35
  8
DRAFT
 10
-951.259401135755
 20
-25.66818617785614
 30
0.0
  0
VERTEX
  5
F36
  8
DRAFT
 10
-951.2466837055858
 20
-25.52282562071951
 30
0.0
 42
-0.4142135183882674
  0
VERTEX
  5
F37
  8
DRAFT
 10
-951.2128290033031
 20
-25.49441815972774
 30
0.0
  0
VERTEX
  5
F38
  8
DRAFT
 10
-950.7664827879348
 20
-25.53346841599369
 30
0.0
 42
-0.4142135477876109
  0
VERTEX
  5
F39
  8
DRAFT
 10
-950.7380753221323
 20
-25.56732311713404
 30
0.0
  0
VERTEX
  5
F3A
  8
DRAFT
 10
-950.7507927251866
 20
-25.71268369920728
 30
0.0
 42
1.000000000017411
  0
SEQEND
  5
F3B
  8
DRAFT
  0
POLYLINE
  5
F3C
  8
DRAFT
 66
     1
 10
0.0
 20
0.0
 30
0.0
  0
VERTEX
  5
F3D
  8
DRAFT
 10
-953.1540298698742
 20
-24.68619971247941
 30
0.0
  0
VERTEX
  5
F3E
  8
DRAFT
 10
-953.1788172316847
 20
-24.68403347103635
 30
0.0
 42
0.1624911418144026
  0
VERTEX
  5
F3F
  8
DRAFT
 10
-953.254531565118
 20
-24.70168577680667
 30
0.0
 42
0.090123973989186
  0
VERTEX
  5
F40
  8
DRAFT
 10
-953.3891636117477
 20
-24.82240835463202
 30
0.0
 42
0.2945408183556847
  0
VERTEX
  5
F41
  8
DRAFT
 10
-953.4230867908218
 20
-25.21057654768574
 30
0.0
 42
0.0931204833706731
  0
VERTEX
  5
F42
  8
DRAFT
 10
-953.311436349358
 20
-25.35282248856842
 30
0.0
 42
0.1594425821301678
  0
VERTEX
  5
F43
  8
DRAFT
 10
-953.2399317809691
 20
-25.38334069437611
 30
0.0
  0
VERTEX
  5
F44
  8
DRAFT
 10
-953.2151444191973
 20
-25.38550693626296
 30
0.0
  0
SEQEND
  5
F45
  8
DRAFT
  0
LINE
  5
F46
  8
DRAFT
 10
-940.3873901397012
 20
-25.53967826407852
 30
0.0
 11
-940.371949119821
 21
-25.71616992891727
 31
0.0
  0
LINE
  5
F47
  8
DRAFT
 10
-950.6955039173827
 20
-25.53967826407852
 30
0.0
 11
-950.7109449372629
 21
-25.71616992891727
 31
0.0
  0
LINE
  5
F48
  8
DRAFT
 10
-972.8490838101852
 20
-25.53967826407852
 30
0.0
 11
-972.8645248300654
 21
-25.71616992891727
 31
0.0
  0
ENDSEC
  0
EOF
